  0
SECTION
  2
HEADER
  9
$ACADVER
  1
AC1009
  9
$INSBASE
 10
0.0
 20
0.0
 30
0.0
  9
$EXTMIN
 10
1903.0405749290021
 20
1433.173578249188
 30
0.0
  9
$EXTMAX
 10
2348.540574929003
 20
1748.173578249188
 30
0.0
  9
$LIMMIN
 10
0.0
 20
0.0
  9
$LIMMAX
 10
12.0
 20
9.0
  9
$ORTHOMODE
 70
     0
  9
$REGENMODE
 70
     1
  9
$FILLMODE
 70
     1
  9
$QTEXTMODE
 70
     0
  9
$MIRRTEXT
 70
     0
  9
$DRAGMODE
 70
     2
  9
$LTSCALE
 40
1.0
  9
$OSMODE
 70
  2239
  9
$ATTMODE
 70
     1
  9
$TEXTSIZE
 40
2.5
  9
$TRACEWID
 40
0.05
  9
$TEXTSTYLE
  7
BIG
  9
$CLAYER
  8
0
  9
$CELTYPE
  6
BYLAYER
  9
$CECOLOR
 62
   256
  9
$DIMSCALE
 40
1.0
  9
$DIMASZ
 40
3.0
  9
$DIMEXO
 40
1.0
  9
$DIMDLI
 40
0.0
  9
$DIMRND
 40
0.0
  9
$DIMDLE
 40
0.0
  9
$DIMEXE
 40
1.0
  9
$DIMTP
 40
0.0
  9
$DIMTM
 40
0.0
  9
$DIMTXT
 40
3.0
  9
$DIMCEN
 40
0.0
  9
$DIMTSZ
 40
0.0
  9
$DIMTOL
 70
     0
  9
$DIMLIM
 70
     0
  9
$DIMTIH
 70
     0
  9
$DIMTOH
 70
     0
  9
$DIMSE1
 70
     0
  9
$DIMSE2
 70
     0
  9
$DIMTAD
 70
     1
  9
$DIMZIN
 70
     8
  9
$DIMBLK
  1

  9
$DIMASO
 70
     1
  9
$DIMSHO
 70
     1
  9
$DIMPOST
  1

  9
$DIMAPOST
  1

  9
$DIMALT
 70
     0
  9
$DIMALTD
 70
     2
  9
$DIMALTF
 40
25.399999999999999
  9
$DIMLFAC
 40
1.0
  9
$DIMTOFL
 70
     1
  9
$DIMTVP
 40
0.0
  9
$DIMTIX
 70
     1
  9
$DIMSOXD
 70
     0
  9
$DIMSAH
 70
     0
  9
$DIMBLK1
  1

  9
$DIMBLK2
  1

  9
$DIMSTYLE
  2
DUKITEC
  9
$DIMCLRD
 70
     5
  9
$DIMCLRE
 70
     5
  9
$DIMCLRT
 70
     0
  9
$DIMTFAC
 40
1.0
  9
$DIMGAP
 40
1.0
  9
$LUNITS
 70
     2
  9
$LUPREC
 70
     4
  9
$SKETCHINC
 40
0.1
  9
$FILLETRAD
 40
0.2
  9
$AUNITS
 70
     0
  9
$AUPREC
 70
     0
  9
$MENU
  1
.
  9
$ELEVATION
 40
0.0
  9
$PELEVATION
 40
0.0
  9
$THICKNESS
 40
0.0
  9
$LIMCHECK
 70
     0
  9
$BLIPMODE
 70
     0
  9
$CHAMFERA
 40
0.5
  9
$CHAMFERB
 40
0.5
  9
$SKPOLY
 70
     0
  9
$TDCREATE
 40
2454396.7185476269
  9
$TDUPDATE
 40
2456630.7759883222
  9
$TDINDWG
 40
0.0028510185
  9
$TDUSRTIMER
 40
0.0028509491
  9
$USRTIMER
 70
     1
  9
$ANGBASE
 50
0.0
  9
$ANGDIR
 70
     0
  9
$PDMODE
 70
     0
  9
$PDSIZE
 40
0.0
  9
$PLINEWID
 40
0.0
  9
$COORDS
 70
     1
  9
$SPLFRAME
 70
     0
  9
$SPLINETYPE
 70
     6
  9
$SPLINESEGS
 70
     8
  9
$ATTDIA
 70
     0
  9
$ATTREQ
 70
     1
  9
$HANDLING
 70
     1
  9
$HANDSEED
  5
142CE
  9
$SURFTAB1
 70
     6
  9
$SURFTAB2
 70
     6
  9
$SURFTYPE
 70
     6
  9
$SURFU
 70
     6
  9
$SURFV
 70
     6
  9
$UCSNAME
  2

  9
$UCSORG
 10
0.0
 20
0.0
 30
0.0
  9
$UCSXDIR
 10
1.0
 20
0.0
 30
0.0
  9
$UCSYDIR
 10
0.0
 20
1.0
 30
0.0
  9
$PUCSNAME
  2

  9
$PUCSORG
 10
0.0
 20
0.0
 30
0.0
  9
$PUCSXDIR
 10
1.0
 20
0.0
 30
0.0
  9
$PUCSYDIR
 10
0.0
 20
1.0
 30
0.0
  9
$USERI1
 70
     0
  9
$USERI2
 70
     0
  9
$USERI3
 70
     0
  9
$USERI4
 70
     0
  9
$USERI5
 70
     0
  9
$USERR1
 40
0.0
  9
$USERR2
 40
0.0
  9
$USERR3
 40
0.0
  9
$USERR4
 40
0.0
  9
$USERR5
 40
0.0
  9
$WORLDVIEW
 70
     1
  9
$SHADEDGE
 70
     3
  9
$SHADEDIF
 70
    70
  9
$TILEMODE
 70
     1
  9
$MAXACTVP
 70
    64
  9
$PLIMCHECK
 70
     0
  9
$PEXTMIN
 10
0.0
 20
0.0
 30
0.0
  9
$PEXTMAX
 10
0.0
 20
0.0
 30
0.0
  9
$PLIMMIN
 10
0.0
 20
0.0
  9
$PLIMMAX
 10
12.0
 20
9.0
  9
$UNITMODE
 70
     0
  9
$VISRETAIN
 70
     1
  9
$PLINEGEN
 70
     0
  9
$PSLTSCALE
 70
     1
  0
ENDSEC
  0
SECTION
  2
TABLES
  0
TABLE
  2
VPORT
 70
     1
  0
VPORT
  2
*ACTIVE
 70
     0
 10
0.0
 20
0.0
 11
1.0
 21
1.0
 12
2105.5492417406458
 22
1579.0322575531891
 13
0.0
 23
0.0
 14
0.5
 24
0.5
 15
0.5
 25
0.5
 16
0.0
 26
0.0
 36
1.0
 17
0.0
 27
0.0
 37
0.0
 40
181.62936519983199
 41
2.1408934707903771
 42
50.0
 43
0.0
 44
0.0
 50
0.0
 51
0.0
 71
     0
 72
  2000
 73
     1
 74
     3
 75
     0
 76
     0
 77
     0
 78
     0
  0
ENDTAB
  0
TABLE
  2
LTYPE
 70
     5
  0
LTYPE
  2
CONTINUOUS
 70
     0
  3
Solid line
 72
    65
 73
     0
 40
0.0
  0
LTYPE
  2
PHANTOM2
 70
     0
  3
Phantom (.5x) ___ _ _ ___ _ _ ___ _ _ ___ _ _
 72
    65
 73
     6
 40
1.25
 49
0.625
 49
-0.125
 49
0.125
 49
-0.125
 49
0.125
 49
-0.125
  0
LTYPE
  2
CENTER
 70
     0
  3
___ _ ___ _ ___ _ ___ _ ___ _ ___ _ ___ _ ___ _
 72
    65
 73
     4
 40
0.95
 49
0.625
 49
-0.125
 49
0.075
 49
-0.125
  0
LTYPE
  2
DASHED2
 70
     0
  3
Dashed (.5x) _ _ _ _ _ _ _ _ _ _ _ _ _ _ _ _ _
 72
    65
 73
     2
 40
0.375
 49
0.25
 49
-0.125
  0
ENDTAB
  0
TABLE
  2
LAYER
 70
     4
  0
LAYER
  2
0
 70
     0
 62
     7
  6
CONTINUOUS
  0
LAYER
  2
HIDE
 70
     0
 62
     1
  6
DASHED2
  0
LAYER
  2
CENTER
 70
     0
 62
     3
  6
CENTER
  0
ENDTAB
  0
TABLE
  2
STYLE
 70
     3
  0
STYLE
  2
STANDARD
 70
     0
 40
5.0
 41
1.0
 50
0.0
 71
     0
 42
5.0
  3
txt.shx
  4
whgtxt.shx
  0
STYLE
  2
BIG
 70
     0
 40
20.0
 41
1.0
 50
0.0
 71
     0
 42
2.5
  3
txt
  4

  0
ENDTAB
  0
TABLE
  2
VIEW
 70
     0
  0
ENDTAB
  0
TABLE
  2
UCS
 70
     0
  0
ENDTAB
  0
TABLE
  2
APPID
 70
    11
  0
APPID
  2
ACAD
 70
     0
  0
APPID
  2
ACADANNOTATIVE
 70
     0
  0
APPID
  2
ACAD_EXEMPT_FROM_CAD_STANDARDS
 70
     0
  0
APPID
  2
ACAD_DSTYLE_DIMJOGGED_JOGA
 70
     0
  0
APPID
  2
ACAD_PSEXT
 70
     0
  0
APPID
  2
ACAECLAYERSTANDARD
 70
     0
  0
APPID
  2
DCO15
 70
     0
  0
APPID
  2
CONTENTBLOCKICON
 70
     0
  0
APPID
  2
ACAD_DSTYLE_DIMRADIAL_EXTENSION
 70
     0
  0
APPID
  2
ACAD_NAV_VCDISPLAY
 70
     0
  0
APPID
  2
ACAD_MLEADERVER
 70
     0
  0
ENDTAB
  0
TABLE
  2
DIMSTYLE
 70
     4
  0
DIMSTYLE
  2
DUKITEC
 70
     0
  3

  4

  5

  6

  7

 40
1.0
 41
3.0
 42
1.0
 43
0.0
 44
1.0
 45
0.0
 46
0.0
 47
0.0
 48
0.0
140
3.0
141
0.0
142
0.0
143
25.399999999999999
144
1.0
145
0.0
146
1.0
147
1.0
 71
     0
 72
     0
 73
     0
 74
     0
 75
     0
 76
     0
 77
     1
 78
     8
170
     0
171
     2
172
     1
173
     0
174
     1
175
     0
176
     5
177
     5
178
     0
  0
ENDTAB
  0
ENDSEC
  0
SECTION
  2
BLOCKS
  0
BLOCK
  8
0
  2
$MODEL_SPACE
 70
     0
 10
0.0
 20
0.0
 30
0.0
  3
$MODEL_SPACE
  1

  0
ENDBLK
  5
1409A
  8
0
  0
BLOCK
 67
     1
  8
0
  2
$PAPER_SPACE
 70
     0
 10
0.0
 20
0.0
 30
0.0
  3
$PAPER_SPACE
  1

  0
ENDBLK
  5
14096
 67
     1
  8
0
  0
ENDSEC
  0
SECTION
  2
ENTITIES
  0
TEXT
  5
13FFC
  8
0
 10
2062.6228755609009
 20
1524.6150900901191
 30
0.0
 40
20.0
  1
FK 12
  7
BIG
  0
ARC
  5
140B7
  8
CENTER
 10
2083.9252160375381
 20
1598.6732929886041
 30
0.0
 40
17.5
 50
102.01010400001201
 51
128.08302399998379
  0
ARC
  5
140B8
  8
CENTER
 10
2083.9252160375381
 20
1598.6732929886041
 30
0.0
 40
17.5
 50
11.527285999989431
 51
38.179520000001922
  0
ARC
  5
140B9
  8
CENTER
 10
2083.9252160375381
 20
1598.6732929886041
 30
0.0
 40
17.5
 50
281.16636500000811
 51
308.58153600001498
  0
ARC
  5
140BA
  8
CENTER
 10
2083.9252160375381
 20
1598.6732929886041
 30
0.0
 40
22.0
 50
77.265563999998932
 51
103.2968720000121
  0
ARC
  5
140BB
  8
CENTER
 10
2083.9252160375381
 20
1598.6732929886041
 30
0.0
 40
22.0
 50
346.96683500000751
 51
13.574495999993729
  0
ARC
  5
140BC
  8
CENTER
 10
2083.9252160375381
 20
1598.6732929886041
 30
0.0
 40
22.0
 50
257.09424300000882
 51
283.14002799998929
  0
CIRCLE
  5
140BD
  8
0
 10
2076.5293940375382
 20
1614.533677988604
 30
0.0
 40
2.75
  0
CIRCLE
  5
140BE
  8
0
 10
2068.0648580375382
 20
1591.2774129886041
 30
0.0
 40
2.75
  0
CIRCLE
  5
140BF
  8
0
 10
2091.3210320375392
 20
1582.812904988604
 30
0.0
 40
2.75
  0
CIRCLE
  5
140C0
  8
0
 10
2099.785602037538
 20
1606.0691139886039
 30
0.0
 40
2.75
  0
CIRCLE
  5
140C1
  8
0
 10
2083.9252160375381
 20
1598.6732929886041
 30
0.0
 40
12.5
  0
ARC
  5
140C2
  8
0
 10
2083.9252160375381
 20
1598.6732929886041
 30
0.0
 40
27.0
 50
80.430614000007836
 51
99.568857999999295
  0
ARC
  5
140C3
  8
CENTER
 10
2083.9252160375381
 20
1598.6732929886041
 30
0.0
 40
17.5
 50
190.05548599999759
 51
221.39586900000069
  0
ARC
  5
140C4
  8
0
 10
2083.9252160375381
 20
1598.6732929886041
 30
0.0
 40
27.0
 50
170.43098000000191
 51
179.9999099999909
  0
CIRCLE
  5
140C5
  8
0
 10
2061.9252780375382
 20
1598.6732929886041
 30
0.0
 40
4.0
  0
CIRCLE
  5
140C6
  8
0
 10
2105.9252170375389
 20
1598.6732929886041
 30
0.0
 40
4.0
  0
CIRCLE
  5
140C7
  8
0
 10
2083.9252160375381
 20
1620.673322988604
 30
0.0
 40
4.0
  0
ARC
  5
140C8
  8
CENTER
 10
2083.9252160375381
 20
1598.6732929886041
 30
0.0
 40
22.0
 50
166.4483400000135
 51
192.88819499999369
  0
ARC
  5
140C9
  8
0
 10
2083.9252160375381
 20
1598.6732929886041
 30
0.0
 40
27.0
 50
260.431140000011
 51
279.5691699999893
  0
ARC
  5
140CA
  8
0
 10
2083.9252160375381
 20
1598.6732929886041
 30
0.0
 40
27.0
 50
180.00009000000901
 51
189.56901999999801
  0
CIRCLE
  5
140CB
  8
0
 10
2061.9252780375382
 20
1598.6732929886041
 30
0.0
 40
4.0
  0
CIRCLE
  5
140CC
  8
0
 10
2105.9252170375389
 20
1598.6732929886041
 30
0.0
 40
4.0
  0
CIRCLE
  5
140CD
  8
0
 10
2083.9252160375381
 20
1576.6733459886041
 30
0.0
 40
4.0
  0
CIRCLE
  5
140CE
  8
0
 10
2083.9252160375381
 20
1620.673322988604
 30
0.0
 40
2.25
  0
CIRCLE
  5
140CF
  8
0
 10
2105.9252170375389
 20
1598.6732929886041
 30
0.0
 40
2.25
  0
CIRCLE
  5
140D0
  8
0
 10
2061.9251860375389
 20
1598.6732929886041
 30
0.0
 40
2.25
  0
CIRCLE
  5
140D1
  8
0
 10
2083.9252160375381
 20
1576.6733459886041
 30
0.0
 40
2.25
  0
ARC
  5
140D2
  8
0
 10
2083.9252160375381
 20
1598.6732929886041
 30
0.0
 40
27.0
 50
85.315673999998168
 51
99.569021999987669
  0
ARC
  5
140D3
  8
0
 10
2083.9252160375381
 20
1598.6732929886041
 30
0.0
 40
27.0
 50
260.431140000011
 51
279.56911000001202
  0
LINE
  5
140D4
  8
0
 10
2075.9194410375389
 20
1615.8418489886039
 30
0.0
 11
2077.3573390375382
 21
1615.7160469886039
 31
0.0
  0
LINE
  5
140D5
  8
0
 10
2077.3572750375379
 20
1615.716088988604
 30
0.0
 11
2077.9672640375388
 21
1614.407959988604
 31
0.0
  0
LINE
  5
140D6
  8
0
 10
2077.967345037539
 20
1614.4079939886039
 30
0.0
 11
2077.1394680375379
 21
1613.2256639886041
 31
0.0
  0
LINE
  5
140D7
  8
0
 10
2077.1394880375378
 20
1613.2255859886041
 30
0.0
 11
2075.7015610375379
 21
1613.3513879886041
 31
0.0
  0
LINE
  5
140D8
  8
0
 10
2075.7016580375389
 20
1613.3513369886041
 30
0.0
 11
2075.091618037538
 21
1614.659575988604
 31
0.0
  0
LINE
  5
140D9
  8
0
 10
2075.0915800375378
 20
1614.6596009886041
 30
0.0
 11
2075.9194580375379
 21
1615.8419319886041
 31
0.0
  0
LINE
  5
140DA
  8
0
 10
2066.756691037539
 20
1590.667486988604
 30
0.0
 11
2066.8824880375382
 21
1592.105346988604
 31
0.0
  0
LINE
  5
140DB
  8
0
 10
2066.8826520375378
 20
1592.1054419886041
 30
0.0
 11
2068.1906690375381
 21
1592.715378988604
 31
0.0
  0
LINE
  5
140DC
  8
0
 10
2068.190635037538
 20
1592.715253988604
 30
0.0
 11
2069.3729660375388
 21
1591.887376988604
 31
0.0
  0
LINE
  5
140DD
  8
0
 10
2069.3729550375378
 20
1591.887455988604
 30
0.0
 11
2069.2471590375389
 21
1590.4495969886041
 31
0.0
  0
LINE
  5
140DE
  8
0
 10
2069.2472360375382
 20
1590.4495989886041
 30
0.0
 11
2067.9392190375388
 21
1589.8396619886039
 31
0.0
  0
LINE
  5
140DF
  8
0
 10
2067.9390170375382
 20
1589.8394979886041
 30
0.0
 11
2066.7566870375381
 21
1590.667374988604
 31
0.0
  0
LINE
  5
140E0
  8
0
 10
2091.9309620375388
 20
1581.504836988604
 30
0.0
 11
2090.4930950375392
 21
1581.6306339886039
 31
0.0
  0
LINE
  5
140E1
  8
0
 10
2090.4931020375379
 20
1581.6306749886039
 30
0.0
 11
2089.883061037538
 21
1582.9389139886041
 31
0.0
  0
LINE
  5
140E2
  8
0
 10
2089.8830660375379
 20
1582.938826988604
 30
0.0
 11
2090.7109390375381
 21
1584.1211509886041
 31
0.0
  0
LINE
  5
140E3
  8
0
 10
2090.7109810375382
 20
1584.1211059886041
 30
0.0
 11
2092.1488630375388
 21
1583.9953079886041
 31
0.0
  0
LINE
  5
140E4
  8
0
 10
2092.1488810375381
 20
1583.9953289886039
 30
0.0
 11
2092.758871037538
 21
1582.687200988604
 31
0.0
  0
LINE
  5
140E5
  8
0
 10
2092.7588100375392
 20
1582.687204988604
 30
0.0
 11
2091.9309370375381
 21
1581.5048789886041
 31
0.0
  0
LINE
  5
140E6
  8
0
 10
2101.0937390375389
 20
1606.679000988604
 30
0.0
 11
2100.9679400375389
 21
1605.241125988603
 31
0.0
  0
LINE
  5
140E7
  8
0
 10
2100.9679400375389
 20
1605.241132988604
 30
0.0
 11
2099.6598250375382
 21
1604.631149988604
 31
0.0
  0
LINE
  5
140E8
  8
0
 10
2099.6598550375379
 20
1604.6312109886039
 30
0.0
 11
2098.4775250375378
 21
1605.4590879886041
 31
0.0
  0
LINE
  5
140E9
  8
0
 10
2098.477453037538
 20
1605.4590109886039
 30
0.0
 11
2098.603251037538
 21
1606.896877988604
 31
0.0
  0
LINE
  5
140EA
  8
0
 10
2098.6032950375388
 20
1606.8968969886041
 30
0.0
 11
2099.9114240375379
 21
1607.5068859886039
 31
0.0
  0
LINE
  5
140EB
  8
0
 10
2099.9113980375391
 20
1607.5068729886041
 30
0.0
 11
2101.093754037538
 21
1606.678977988603
 31
0.0
  0
LINE
  5
140EC
  8
CENTER
 10
2064.4981120375378
 20
1589.6142129886041
 30
0.0
 11
2071.4686900375382
 21
1592.8646449886039
 31
0.0
  0
LINE
  5
140ED
  8
CENTER
 10
2096.4477190375378
 20
1604.512633988604
 30
0.0
 11
2103.2921090375389
 21
1607.704222988604
 31
0.0
  0
LINE
  5
140EE
  8
CENTER
 10
2089.7283710375382
 20
1586.2283779886041
 30
0.0
 11
2092.937058037538
 21
1579.3473259886041
 31
0.0
  0
LINE
  5
140EF
  8
0
 10
2110.5496520375382
 20
1603.1617639886031
 30
0.0
 11
2088.413681037538
 21
1625.2977369886039
 31
0.0
  0
LINE
  5
140F0
  8
0
 10
2079.4369220375388
 20
1625.2977469886041
 30
0.0
 11
2057.3010870375379
 21
1603.1619129886039
 31
0.0
  0
LINE
  5
140F1
  8
0
 10
2088.4138400375382
 20
1572.0491599886041
 30
0.0
 11
2110.5496640375382
 21
1594.1849849886039
 31
0.0
  0
LINE
  5
140F2
  8
0
 10
2057.3010870375379
 20
1594.1851439886041
 30
0.0
 11
2079.4370600375378
 21
1572.049171988604
 31
0.0
  0
LINE
  5
140F3
  8
CENTER
 10
2074.9550420375381
 20
1617.909889988603
 30
0.0
 11
2078.0647940375388
 21
1611.2410029886039
 31
0.0
  0
LINE
  5
140F4
  8
0
 10
2088.4138400375382
 20
1572.0493339886041
 30
0.0
 11
2110.5495450375379
 21
1594.185038988604
 31
0.0
  0
LINE
  5
140F5
  8
0
 10
2057.3011780375382
 20
1594.1852359886041
 30
0.0
 11
2079.4372160375378
 21
1572.049197988604
 31
0.0
  0
ARC
  5
140F6
  8
0
 10
2083.9252160375381
 20
1598.6732929886041
 30
0.0
 40
27.0
 50
359.999979999998
 51
9.5690640000048361
  0
ARC
  5
140F7
  8
0
 10
2083.9252160375381
 20
1598.6732929886041
 30
0.0
 40
27.0
 50
350.43094000000428
 51
0.0000169999912889
  0
ARC
  5
140F8
  8
0
 10
2083.9252160375381
 20
1598.6732929886041
 30
0.0
 40
27.0
 50
0.0000169999912889
 51
9.5690470000032821
  0
ARC
  5
140F9
  8
0
 10
2083.9252160375381
 20
1598.6732929886041
 30
0.0
 40
27.0
 50
350.43098000000191
 51
0.0
  0
ARC
  5
140FA
  8
0
 10
2083.9252160375381
 20
1598.6732929886041
 30
0.0
 40
11.0
 50
165.27264131893091
 51
194.72735868106909
  0
ARC
  5
140FB
  8
0
 10
2083.9252160375381
 20
1598.6732929886041
 30
0.0
 40
11.0
 50
255.27264131888049
 51
284.72735868111948
  0
ARC
  5
140FC
  8
0
 10
2083.9252160375381
 20
1598.6732929886041
 30
0.0
 40
11.0
 50
345.27264131893099
 51
14.727358681069081
  0
ARC
  5
140FD
  8
0
 10
2083.9252160375381
 20
1598.6732929886041
 30
0.0
 40
11.0
 50
75.272641318880531
 51
104.7273586811195
  0
POLYLINE
  5
140FE
  8
0
 66
     1
 10
0.0
 20
0.0
 30
0.0
  0
VERTEX
  5
142BF
  8
0
 10
2081.1287984016049
 20
1609.3119041952159
 30
0.0
  0
VERTEX
  5
142C0
  8
0
 10
2073.2866048309261
 20
1601.4697106245351
 30
0.0
  0
SEQEND
  5
142C1
  8
0
  0
POLYLINE
  5
140FF
  8
0
 66
     1
 10
0.0
 20
0.0
 30
0.0
  0
VERTEX
  5
142C2
  8
0
 10
2073.2866048309261
 20
1595.876875352671
 30
0.0
  0
VERTEX
  5
142C3
  8
0
 10
2081.1287984016049
 20
1588.034681781992
 30
0.0
  0
SEQEND
  5
142C4
  8
0
  0
POLYLINE
  5
14100
  8
0
 66
     1
 10
0.0
 20
0.0
 30
0.0
  0
VERTEX
  5
142C5
  8
0
 10
2086.7216336734709
 20
1588.03468178199
 30
0.0
  0
VERTEX
  5
142C6
  8
0
 10
2094.5638272441502
 20
1595.876875352671
 30
0.0
  0
SEQEND
  5
142C7
  8
0
  0
POLYLINE
  5
14101
  8
0
 66
     1
 10
0.0
 20
0.0
 30
0.0
  0
VERTEX
  5
142C8
  8
0
 10
2094.5638272441502
 20
1601.4697106245351
 30
0.0
  0
VERTEX
  5
142C9
  8
0
 10
2086.7216336734709
 20
1609.3119041952141
 30
0.0
  0
SEQEND
  5
142CA
  8
0
  0
ARC
  5
14102
  8
HIDE
 10
2083.9252160375381
 20
1598.6732929886041
 30
0.0
 40
6.0
 50
270.0
 51
180.0
  0
CIRCLE
  5
14103
  8
0
 10
2083.9252160375381
 20
1598.6732929886041
 30
0.0
 40
5.5
  0
LINE
  5
14104
  8
HIDE
 10
2085.9252160375399
 20
1609.4899468149949
 30
0.0
 11
2085.9252160375381
 21
1603.7967683715831
 31
0.0
  0
LINE
  5
14105
  8
HIDE
 10
2085.5752160375382
 20
1609.5488389519101
 30
0.0
 11
2085.5752160375382
 21
1603.919958596397
 31
0.0
  0
LINE
  5
14106
  8
HIDE
 10
2081.9252160375381
 20
1609.4899468149961
 30
0.0
 11
2081.9252160375381
 21
1603.796768371584
 31
0.0
  0
LINE
  5
14107
  8
HIDE
 10
2082.2752160375389
 20
1609.5488389519101
 30
0.0
 11
2082.2752160375389
 21
1603.919958596397
 31
0.0
  0
LINE
  5
14108
  8
HIDE
 10
2081.9252160375381
 20
1609.135816250955
 30
0.0
 11
2085.9252160375399
 21
1609.1358162509539
 31
0.0
  0
LINE
  5
14109
  8
HIDE
 10
2081.9252160375381
 20
1605.135816250955
 30
0.0
 11
2085.9252160375399
 21
1605.1358162509539
 31
0.0
  0
LINE
  5
1410A
  8
HIDE
 10
2085.5752160375382
 20
1604.933743656738
 30
0.0
 11
2085.9252160375381
 21
1605.1358162509539
 31
0.0
  0
LINE
  5
1410B
  8
HIDE
 10
2085.5752160375382
 20
1604.933743656738
 30
0.0
 11
2082.2752160375389
 21
1604.933743656738
 31
0.0
  0
LINE
  5
1410C
  8
HIDE
 10
2082.2752160375389
 20
1604.933743656738
 30
0.0
 11
2081.9252160375381
 21
1605.1358162509539
 31
0.0
  0
LINE
  5
1410D
  8
CENTER
 10
2052.9252160375381
 20
1598.6732929886041
 30
0.0
 11
2114.9252160375381
 21
1598.6732929886041
 31
0.0
  0
LINE
  5
1410E
  8
CENTER
 10
2083.9252160375381
 20
1567.6732929886041
 30
0.0
 11
2083.9252160375381
 21
1629.6732929886041
 31
0.0
  0
LINE
  5
14111
  8
HIDE
 10
2135.59093738108
 20
1616.673297540033
 30
0.0
 11
2140.59093738108
 21
1616.673295016654
 31
0.0
  0
LINE
  5
14112
  8
HIDE
 10
2140.59093738108
 20
1618.423322988604
 30
0.0
 11
2146.5909273810798
 21
1618.423322988604
 31
0.0
  0
LINE
  5
14113
  8
HIDE
 10
2140.59093738108
 20
1622.923322988604
 30
0.0
 11
2146.5909273810798
 21
1622.923322988604
 31
0.0
  0
LINE
  5
14114
  8
HIDE
 10
2135.59093738108
 20
1624.673322988604
 30
0.0
 11
2140.59093738108
 21
1624.673322988604
 31
0.0
  0
LINE
  5
14115
  8
CENTER
 10
2132.4637492434299
 20
1576.6732929886041
 30
0.0
 11
2149.606287435533
 21
1576.6732929886041
 31
0.0
  0
LINE
  5
14116
  8
CENTER
 10
2132.4637492434299
 20
1620.6732929886041
 30
0.0
 11
2149.606287435533
 21
1620.6732929886041
 31
0.0
  0
LINE
  5
14117
  8
0
 10
2140.59093738108
 20
1594.184919988604
 30
0.0
 11
2146.5909273810798
 21
1594.184919988604
 31
0.0
  0
LINE
  5
14118
  8
0
 10
2140.59093738108
 20
1603.1616809886041
 30
0.0
 11
2146.5909273810798
 21
1603.1616809886041
 31
0.0
  0
LINE
  5
14119
  8
0
 10
2140.59093738108
 20
1571.6732929886041
 30
0.0
 11
2146.5909273810798
 21
1571.6732929886041
 31
0.0
  0
LINE
  5
1411A
  8
0
 10
2135.59093738108
 20
1571.6732929886041
 30
0.0
 11
2140.59093738108
 21
1571.6732929886041
 31
0.0
  0
LINE
  5
1411B
  8
0
 10
2140.59093738108
 20
1625.6732929886041
 30
0.0
 11
2146.5909273810798
 21
1625.6732929886041
 31
0.0
  0
LINE
  5
1411C
  8
0
 10
2135.59093738108
 20
1625.6732929886041
 30
0.0
 11
2140.59093738108
 21
1625.6732929886041
 31
0.0
  0
LINE
  5
1411D
  8
0
 10
2163.5909273810798
 20
1616.6732929886041
 30
0.0
 11
2163.5909273810798
 21
1580.6732929886041
 31
0.0
  0
LINE
  5
1411E
  8
0
 10
2140.59093738108
 20
1625.6732929886041
 30
0.0
 11
2140.59093738108
 21
1571.6732929886041
 31
0.0
  0
LINE
  5
1411F
  8
CENTER
 10
2124.9560683672898
 20
1598.6732929886041
 30
0.0
 11
2167.2493377099931
 21
1598.6732929886041
 31
0.0
  0
LINE
  5
14120
  8
HIDE
 10
2137.0909273810798
 20
1592.6732929886041
 30
0.0
 11
2142.5909273810798
 21
1592.6732929886041
 31
0.0
  0
LINE
  5
14121
  8
HIDE
 10
2158.5909273810798
 20
1592.6732929886041
 30
0.0
 11
2164.0909273810798
 21
1592.673292988605
 31
0.0
  0
LINE
  5
14122
  8
HIDE
 10
2137.0909273810798
 20
1604.6732929886041
 30
0.0
 11
2142.5909273810798
 21
1604.6732929886041
 31
0.0
  0
LINE
  5
14123
  8
HIDE
 10
2158.5909273810798
 20
1604.6732929886041
 30
0.0
 11
2164.0909273810798
 21
1604.6732929886041
 31
0.0
  0
LINE
  5
14124
  8
HIDE
 10
2137.0909273810798
 20
1591.023292988604
 30
0.0
 11
2142.5909273810798
 21
1591.023292988604
 31
0.0
  0
LINE
  5
14125
  8
HIDE
 10
2158.5909273810798
 20
1591.023292988604
 30
0.0
 11
2163.5909273810798
 21
1591.023292988604
 31
0.0
  0
LINE
  5
14126
  8
HIDE
 10
2137.0909273810798
 20
1606.323292988604
 30
0.0
 11
2142.5909273810798
 21
1606.323292988604
 31
0.0
  0
LINE
  5
14127
  8
HIDE
 10
2158.5909273810798
 20
1606.323292988604
 30
0.0
 11
2163.5909273810798
 21
1606.323292988604
 31
0.0
  0
LINE
  5
14128
  8
0
 10
2135.59093738108
 20
1594.184919988604
 30
0.0
 11
2140.59093738108
 21
1594.184919988604
 31
0.0
  0
LINE
  5
14129
  8
0
 10
2135.59093738108
 20
1603.1616809886041
 30
0.0
 11
2140.59093738108
 21
1603.1616809886041
 31
0.0
  0
LINE
  5
1412A
  8
0
 10
2135.59093738108
 20
1625.6732929886041
 30
0.0
 11
2135.59093738108
 21
1571.6732929886041
 31
0.0
  0
LINE
  5
1412C
  8
0
 10
2146.5909273810798
 20
1625.6732929886041
 30
0.0
 11
2146.5909273810798
 21
1571.6732929886041
 31
0.0
  0
CIRCLE
  5
1412E
  8
HIDE
 10
2154.5909273810798
 20
1588.6732929886041
 30
0.0
 40
2.399999999999999
  0
CIRCLE
  5
1412F
  8
HIDE
 10
2154.5909273810798
 20
1608.6732929886041
 30
0.0
 40
2.399999999999999
  0
CIRCLE
  5
14130
  8
HIDE
 10
2146.5909273810798
 20
1588.6732929886041
 30
0.0
 40
2.399999999999999
  0
CIRCLE
  5
14131
  8
HIDE
 10
2146.5909273810798
 20
1608.6732929886041
 30
0.0
 40
2.399999999999999
  0
ARC
  5
14132
  8
HIDE
 10
2150.4409273810802
 20
1612.523292988604
 30
0.0
 40
0.1500000000000003
 50
0.0
 51
90.0
  0
ARC
  5
14133
  8
HIDE
 10
2142.89092738108
 20
1612.3732929886039
 30
0.0
 40
0.3000000000000007
 50
90.0
 51
180.0
  0
ARC
  5
14134
  8
HIDE
 10
2150.2909273810801
 20
1604.973292988604
 30
0.0
 40
0.2999999999999998
 50
270.0
 51
0.0
  0
ARC
  5
14135
  8
HIDE
 10
2150.2909273810801
 20
1592.3732929886039
 30
0.0
 40
0.3000000000000007
 50
0.0
 51
90.0
  0
ARC
  5
14136
  8
HIDE
 10
2142.7409273810799
 20
1604.823292988603
 30
0.0
 40
0.1500000000000003
 50
180.0
 51
270.0
  0
ARC
  5
14137
  8
HIDE
 10
2142.7409273810799
 20
1592.523292988604
 30
0.0
 40
0.1500000000000003
 50
90.0
 51
180.0
  0
ARC
  5
14138
  8
HIDE
 10
2150.4409273810802
 20
1584.823292988604
 30
0.0
 40
0.1500000000000003
 50
270.0
 51
0.0
  0
ARC
  5
14139
  8
HIDE
 10
2142.89092738108
 20
1584.973292988604
 30
0.0
 40
0.2999999999999989
 50
180.0
 51
270.0
  0
LINE
  5
1413A
  8
HIDE
 10
2142.5909273810798
 20
1609.973292988604
 30
0.0
 11
2144.5735032808971
 21
1609.973292988604
 31
0.0
  0
LINE
  5
1413B
  8
HIDE
 10
2142.89092738108
 20
1612.6732929886041
 30
0.0
 11
2150.4409273810802
 21
1612.6732929886041
 31
0.0
  0
LINE
  5
1413C
  8
HIDE
 10
2150.5909273810798
 20
1607.3732929886039
 30
0.0
 11
2148.6083514812631
 21
1607.3732929886039
 31
0.0
  0
LINE
  5
1413D
  8
HIDE
 10
2147.444202871171
 20
1610.916487348888
 30
0.0
 11
2150.5909273810798
 21
1611.223292988604
 31
0.0
  0
LINE
  5
1413E
  8
HIDE
 10
2142.5909273810798
 20
1607.3732929886039
 30
0.0
 11
2144.5735032808971
 21
1607.3732929886039
 31
0.0
  0
LINE
  5
1413F
  8
HIDE
 10
2142.5909273810798
 20
1589.973292988604
 30
0.0
 11
2144.5735032808971
 21
1589.973292988604
 31
0.0
  0
LINE
  5
14140
  8
HIDE
 10
2142.7409273810799
 20
1604.6732929886041
 30
0.0
 11
2150.2909273810801
 21
1604.6732929886041
 31
0.0
  0
LINE
  5
14141
  8
HIDE
 10
2142.7409273810799
 20
1592.6732929886041
 30
0.0
 11
2150.2909273810801
 21
1592.6732929886041
 31
0.0
  0
LINE
  5
14142
  8
HIDE
 10
2150.5909273810798
 20
1589.973292988604
 30
0.0
 11
2148.6083514812631
 21
1589.973292988604
 31
0.0
  0
LINE
  5
14143
  8
HIDE
 10
2142.5909273810798
 20
1587.3732929886039
 30
0.0
 11
2144.5735032808971
 21
1587.3732929886039
 31
0.0
  0
LINE
  5
14144
  8
HIDE
 10
2150.4409273810802
 20
1584.6732929886041
 30
0.0
 11
2142.89092738108
 21
1584.6732929886041
 31
0.0
  0
LINE
  5
14145
  8
HIDE
 10
2147.444202871171
 20
1586.4300986283199
 30
0.0
 11
2150.5909273810798
 21
1586.1232929886039
 31
0.0
  0
LINE
  5
14146
  8
HIDE
 10
2142.5909273810798
 20
1584.973292988604
 30
0.0
 11
2142.5909273810798
 21
1612.3732929886039
 31
0.0
  0
LINE
  5
14147
  8
HIDE
 10
2150.5909273810798
 20
1612.523292988604
 30
0.0
 11
2150.5909273810798
 21
1584.823292988604
 31
0.0
  0
ARC
  5
14148
  8
HIDE
 10
2150.7409273810799
 20
1584.823292988604
 30
0.0
 40
0.1499999999999995
 50
180.0
 51
270.0
  0
ARC
  5
14149
  8
HIDE
 10
2158.2909273810801
 20
1584.973292988604
 30
0.0
 40
0.3000000000000007
 50
270.0
 51
0.0
  0
ARC
  5
1414A
  8
HIDE
 10
2150.89092738108
 20
1592.3732929886039
 30
0.0
 40
0.2999999999999998
 50
90.0
 51
180.0
  0
ARC
  5
1414B
  8
HIDE
 10
2150.89092738108
 20
1604.973292988604
 30
0.0
 40
0.2999999999999998
 50
180.0
 51
270.0
  0
ARC
  5
1414C
  8
HIDE
 10
2158.4409273810802
 20
1592.523292988604
 30
0.0
 40
0.15
 50
0.0
 51
90.0
  0
ARC
  5
1414D
  8
HIDE
 10
2158.4409273810802
 20
1604.823292988603
 30
0.0
 40
0.1500000000000003
 50
270.0
 51
0.0
  0
ARC
  5
1414E
  8
HIDE
 10
2150.7409273810799
 20
1612.523292988604
 30
0.0
 40
0.1500000000000003
 50
90.0
 51
180.0
  0
ARC
  5
1414F
  8
HIDE
 10
2158.2909273810801
 20
1612.3732929886039
 30
0.0
 40
0.3
 50
0.0
 51
90.0
  0
LINE
  5
14150
  8
HIDE
 10
2158.5909273810798
 20
1587.3732929886039
 30
0.0
 11
2156.6083514812631
 21
1587.3732929886039
 31
0.0
  0
LINE
  5
14151
  8
HIDE
 10
2158.2909273810801
 20
1584.6732929886041
 30
0.0
 11
2150.7409273810799
 21
1584.6732929886041
 31
0.0
  0
LINE
  5
14152
  8
HIDE
 10
2150.5909273810798
 20
1589.973292988604
 30
0.0
 11
2152.5735032808971
 21
1589.973292988604
 31
0.0
  0
LINE
  5
14153
  8
HIDE
 10
2153.7376518909891
 20
1586.4300986283199
 30
0.0
 11
2150.5909273810798
 21
1586.1232929886039
 31
0.0
  0
LINE
  5
14154
  8
HIDE
 10
2158.5909273810798
 20
1589.973292988604
 30
0.0
 11
2156.6083514812631
 21
1589.973292988604
 31
0.0
  0
LINE
  5
14155
  8
HIDE
 10
2158.5909273810798
 20
1607.3732929886039
 30
0.0
 11
2156.6083514812631
 21
1607.3732929886039
 31
0.0
  0
LINE
  5
14156
  8
HIDE
 10
2158.4409273810802
 20
1592.6732929886041
 30
0.0
 11
2150.89092738108
 21
1592.6732929886041
 31
0.0
  0
LINE
  5
14157
  8
HIDE
 10
2158.4409273810802
 20
1604.6732929886041
 30
0.0
 11
2150.89092738108
 21
1604.6732929886041
 31
0.0
  0
LINE
  5
14158
  8
HIDE
 10
2150.5909273810812
 20
1607.3732929886039
 30
0.0
 11
2152.5735032808971
 21
1607.3732929886039
 31
0.0
  0
LINE
  5
14159
  8
HIDE
 10
2158.5909273810798
 20
1609.973292988604
 30
0.0
 11
2156.6083514812631
 21
1609.973292988604
 31
0.0
  0
LINE
  5
1415A
  8
HIDE
 10
2150.7409273810799
 20
1612.6732929886041
 30
0.0
 11
2158.2909273810801
 21
1612.6732929886041
 31
0.0
  0
LINE
  5
1415B
  8
HIDE
 10
2153.7376518909891
 20
1610.916487348888
 30
0.0
 11
2150.5909273810812
 21
1611.223292988604
 31
0.0
  0
LINE
  5
1415C
  8
HIDE
 10
2158.5909273810798
 20
1612.3732929886039
 30
0.0
 11
2158.5909273810798
 21
1584.973292988604
 31
0.0
  0
LINE
  5
1415D
  8
HIDE
 10
2137.0909273810798
 20
1607.1732929886041
 30
0.0
 11
2137.0909273810798
 21
1598.6732929886041
 31
0.0
  0
LINE
  5
1415E
  8
CENTER
 10
2132.5909273810798
 20
1610.406449414151
 30
0.0
 11
2132.5909273810798
 21
1603.5017540226779
 31
0.0
  0
LINE
  5
1415F
  8
HIDE
 10
2130.590927381078
 20
1609.6732929886041
 30
0.0
 11
2130.5909273810798
 21
1604.173292988605
 31
0.0
  0
LINE
  5
14160
  8
HIDE
 10
2130.9409273810811
 20
1609.6732929886041
 30
0.0
 11
2130.9409273810811
 21
1604.173292988605
 31
0.0
  0
LINE
  5
14161
  8
HIDE
 10
2134.5909273810798
 20
1609.6732929886041
 30
0.0
 11
2134.5909273810798
 21
1604.173292988605
 31
0.0
  0
LINE
  5
14162
  8
HIDE
 10
2134.2409273810799
 20
1609.6732929886041
 30
0.0
 11
2134.2409273810799
 21
1604.173292988605
 31
0.0
  0
LINE
  5
14163
  8
HIDE
 10
2136.5909273810798
 20
1609.6732929886041
 30
0.0
 11
2136.5909273810798
 21
1598.6732929886041
 31
0.0
  0
LINE
  5
14164
  8
0
 10
2129.0909273810798
 20
1609.6732929886041
 30
0.0
 11
2129.0909273810798
 21
1598.6732929886041
 31
0.0
  0
LINE
  5
14165
  8
0
 10
2135.5909373810809
 20
1609.6732929886041
 30
0.0
 11
2129.0909273810798
 21
1609.6732929886041
 31
0.0
  0
LINE
  5
14166
  8
HIDE
 10
2137.0909273810798
 20
1604.1732929886041
 30
0.0
 11
2129.0909273810798
 21
1604.1732929886041
 31
0.0
  0
LINE
  5
14167
  8
HIDE
 10
2137.0909273810798
 20
1604.6732929886041
 30
0.0
 11
2129.0909273810798
 21
1604.6732929886041
 31
0.0
  0
LINE
  5
14168
  8
HIDE
 10
2137.0909273810798
 20
1607.1732929886041
 30
0.0
 11
2136.5909273810798
 21
1607.4619681231991
 31
0.0
  0
LINE
  5
14169
  8
0
 10
2135.5909373810809
 20
1601.4697106245319
 30
0.0
 11
2129.0909273810798
 21
1601.4697106245319
 31
0.0
  0
LINE
  5
1416A
  8
HIDE
 10
2137.0909273810798
 20
1590.1732929886041
 30
0.0
 11
2137.0909273810798
 21
1598.6732929886041
 31
0.0
  0
LINE
  5
1416B
  8
HIDE
 10
2136.5909273810798
 20
1587.6732929886041
 30
0.0
 11
2136.5909273810798
 21
1598.6732929886041
 31
0.0
  0
LINE
  5
1416C
  8
0
 10
2129.0909273810798
 20
1587.6732929886041
 30
0.0
 11
2129.0909273810798
 21
1598.6732929886041
 31
0.0
  0
LINE
  5
1416D
  8
0
 10
2135.5909373810809
 20
1587.673292988603
 30
0.0
 11
2129.0909273810798
 21
1587.6732929886041
 31
0.0
  0
LINE
  5
1416E
  8
HIDE
 10
2137.0909273810798
 20
1593.1732929886041
 30
0.0
 11
2129.0909273810798
 21
1593.1732929886041
 31
0.0
  0
LINE
  5
1416F
  8
HIDE
 10
2137.0909273810798
 20
1592.6732929886041
 30
0.0
 11
2129.0909273810798
 21
1592.6732929886041
 31
0.0
  0
LINE
  5
14170
  8
HIDE
 10
2137.0909273810798
 20
1590.1732929886041
 30
0.0
 11
2136.5909273810798
 21
1589.8846178540091
 31
0.0
  0
LINE
  5
14171
  8
0
 10
2135.5909373810809
 20
1595.8768753526749
 30
0.0
 11
2129.0909273810798
 21
1595.8768753526761
 31
0.0
  0
LINE
  5
14172
  8
HIDE
 10
2134.5909273810798
 20
1609.135816250955
 30
0.0
 11
2130.590927381078
 21
1609.1358162509539
 31
0.0
  0
LINE
  5
14173
  8
HIDE
 10
2134.5909273810798
 20
1605.135816250955
 30
0.0
 11
2130.590927381078
 21
1605.1358162509539
 31
0.0
  0
LINE
  5
14174
  8
HIDE
 10
2130.9409273810811
 20
1604.933743656738
 30
0.0
 11
2130.5909273810798
 21
1605.1358162509539
 31
0.0
  0
LINE
  5
14175
  8
HIDE
 10
2130.9409273810811
 20
1604.933743656738
 30
0.0
 11
2134.2409273810799
 21
1604.933743656738
 31
0.0
  0
LINE
  5
14176
  8
HIDE
 10
2134.2409273810799
 20
1604.933743656738
 30
0.0
 11
2134.5909273810798
 21
1605.1358162509539
 31
0.0
  0
LINE
  5
14177
  8
HIDE
 10
2135.59093738108
 20
1580.673288437175
 30
0.0
 11
2140.59093738108
 21
1580.6732909605539
 31
0.0
  0
LINE
  5
14178
  8
HIDE
 10
2140.59093738108
 20
1578.9232629886039
 30
0.0
 11
2146.5909273810798
 21
1578.9232629886039
 31
0.0
  0
LINE
  5
14179
  8
HIDE
 10
2140.59093738108
 20
1574.4232629886039
 30
0.0
 11
2146.5909273810798
 21
1574.4232629886039
 31
0.0
  0
LINE
  5
1417A
  8
HIDE
 10
2135.59093738108
 20
1572.6732629886039
 30
0.0
 11
2140.59093738108
 21
1572.6732629886039
 31
0.0
  0
LINE
  5
1417B
  8
HIDE
 10
2135.59093738108
 20
1609.6732929886041
 30
0.0
 11
2136.5909273810798
 21
1609.6732929886041
 31
0.0
  0
LINE
  5
1417C
  8
HIDE
 10
2135.59093738108
 20
1601.4697106245319
 30
0.0
 11
2136.5909273810798
 21
1601.4697106245319
 31
0.0
  0
LINE
  5
1417D
  8
HIDE
 10
2135.59093738108
 20
1595.8768753526749
 30
0.0
 11
2136.5909273810798
 21
1595.8768753526749
 31
0.0
  0
LINE
  5
1417E
  8
HIDE
 10
2135.5909373810809
 20
1587.673292988603
 30
0.0
 11
2136.5909273810798
 21
1587.673292988603
 31
0.0
  0
LINE
  5
141C4
  8
0
 10
2164.0909273810798
 20
1606.323292988604
 30
0.0
 11
2164.0909273810798
 21
1591.023292988604
 31
0.0
  0
LINE
  5
141C5
  8
0
 10
2163.5909273810798
 20
1606.323292988604
 30
0.0
 11
2164.0909273810798
 21
1606.323292988604
 31
0.0
  0
LINE
  5
141C6
  8
0
 10
2163.5909273810798
 20
1591.023292988604
 30
0.0
 11
2164.0909273810798
 21
1591.023292988604
 31
0.0
  0
LINE
  5
141E0
  8
0
 10
2146.5909273810798
 20
1616.6732929886041
 30
0.0
 11
2163.5909273810798
 21
1616.6732929886041
 31
0.0
  0
LINE
  5
141E1
  8
0
 10
2146.5909273810798
 20
1580.6732929886041
 30
0.0
 11
2163.5909273810789
 21
1580.6732929886041
 31
0.0
  0
ENDSEC
  0
EOF
