  0
SECTION
  2
HEADER
  9
$ACADVER
  1
AC1009
  9
$INSBASE
 10
0.0
 20
0.0
 30
0.0
  9
$EXTMIN
 10
1903.0405749290021
 20
1433.173578249188
 30
0.0
  9
$EXTMAX
 10
2348.540574929003
 20
1748.173578249188
 30
0.0
  9
$LIMMIN
 10
0.0
 20
0.0
  9
$LIMMAX
 10
12.0
 20
9.0
  9
$ORTHOMODE
 70
     1
  9
$REGENMODE
 70
     1
  9
$FILLMODE
 70
     1
  9
$QTEXTMODE
 70
     0
  9
$MIRRTEXT
 70
     0
  9
$DRAGMODE
 70
     2
  9
$LTSCALE
 40
5.0
  9
$OSMODE
 70
  2239
  9
$ATTMODE
 70
     1
  9
$TEXTSIZE
 40
2.5
  9
$TRACEWID
 40
0.05
  9
$TEXTSTYLE
  7
BIG
  9
$CLAYER
  8
0
  9
$CELTYPE
  6
BYLAYER
  9
$CECOLOR
 62
   256
  9
$DIMSCALE
 40
1.0
  9
$DIMASZ
 40
3.0
  9
$DIMEXO
 40
1.0
  9
$DIMDLI
 40
0.0
  9
$DIMRND
 40
0.0
  9
$DIMDLE
 40
0.0
  9
$DIMEXE
 40
1.0
  9
$DIMTP
 40
0.0
  9
$DIMTM
 40
0.0
  9
$DIMTXT
 40
3.0
  9
$DIMCEN
 40
0.0
  9
$DIMTSZ
 40
0.0
  9
$DIMTOL
 70
     0
  9
$DIMLIM
 70
     0
  9
$DIMTIH
 70
     0
  9
$DIMTOH
 70
     0
  9
$DIMSE1
 70
     0
  9
$DIMSE2
 70
     0
  9
$DIMTAD
 70
     1
  9
$DIMZIN
 70
     8
  9
$DIMBLK
  1

  9
$DIMASO
 70
     1
  9
$DIMSHO
 70
     1
  9
$DIMPOST
  1

  9
$DIMAPOST
  1

  9
$DIMALT
 70
     0
  9
$DIMALTD
 70
     2
  9
$DIMALTF
 40
25.399999999999999
  9
$DIMLFAC
 40
1.0
  9
$DIMTOFL
 70
     1
  9
$DIMTVP
 40
0.0
  9
$DIMTIX
 70
     1
  9
$DIMSOXD
 70
     0
  9
$DIMSAH
 70
     0
  9
$DIMBLK1
  1

  9
$DIMBLK2
  1

  9
$DIMSTYLE
  2
DUKITEC
  9
$DIMCLRD
 70
     5
  9
$DIMCLRE
 70
     5
  9
$DIMCLRT
 70
     0
  9
$DIMTFAC
 40
1.0
  9
$DIMGAP
 40
1.0
  9
$LUNITS
 70
     2
  9
$LUPREC
 70
     4
  9
$SKETCHINC
 40
0.1
  9
$FILLETRAD
 40
0.2
  9
$AUNITS
 70
     0
  9
$AUPREC
 70
     0
  9
$MENU
  1
.
  9
$ELEVATION
 40
0.0
  9
$PELEVATION
 40
0.0
  9
$THICKNESS
 40
0.0
  9
$LIMCHECK
 70
     0
  9
$BLIPMODE
 70
     0
  9
$CHAMFERA
 40
0.5
  9
$CHAMFERB
 40
0.5
  9
$SKPOLY
 70
     0
  9
$TDCREATE
 40
2454396.751009109
  9
$TDUPDATE
 40
2456631.548772905
  9
$TDINDWG
 40
0.0024274306
  9
$TDUSRTIMER
 40
0.0024273843
  9
$USRTIMER
 70
     1
  9
$ANGBASE
 50
0.0
  9
$ANGDIR
 70
     0
  9
$PDMODE
 70
     0
  9
$PDSIZE
 40
0.0
  9
$PLINEWID
 40
0.0
  9
$COORDS
 70
     1
  9
$SPLFRAME
 70
     0
  9
$SPLINETYPE
 70
     6
  9
$SPLINESEGS
 70
     8
  9
$ATTDIA
 70
     0
  9
$ATTREQ
 70
     1
  9
$HANDLING
 70
     1
  9
$HANDSEED
  5
144B5
  9
$SURFTAB1
 70
     6
  9
$SURFTAB2
 70
     6
  9
$SURFTYPE
 70
     6
  9
$SURFU
 70
     6
  9
$SURFV
 70
     6
  9
$UCSNAME
  2

  9
$UCSORG
 10
0.0
 20
0.0
 30
0.0
  9
$UCSXDIR
 10
1.0
 20
0.0
 30
0.0
  9
$UCSYDIR
 10
0.0
 20
1.0
 30
0.0
  9
$PUCSNAME
  2

  9
$PUCSORG
 10
0.0
 20
0.0
 30
0.0
  9
$PUCSXDIR
 10
1.0
 20
0.0
 30
0.0
  9
$PUCSYDIR
 10
0.0
 20
1.0
 30
0.0
  9
$USERI1
 70
     0
  9
$USERI2
 70
     0
  9
$USERI3
 70
     0
  9
$USERI4
 70
     0
  9
$USERI5
 70
     0
  9
$USERR1
 40
0.0
  9
$USERR2
 40
0.0
  9
$USERR3
 40
0.0
  9
$USERR4
 40
0.0
  9
$USERR5
 40
0.0
  9
$WORLDVIEW
 70
     1
  9
$SHADEDGE
 70
     3
  9
$SHADEDIF
 70
    70
  9
$TILEMODE
 70
     1
  9
$MAXACTVP
 70
    64
  9
$PLIMCHECK
 70
     0
  9
$PEXTMIN
 10
0.0
 20
0.0
 30
0.0
  9
$PEXTMAX
 10
0.0
 20
0.0
 30
0.0
  9
$PLIMMIN
 10
0.0
 20
0.0
  9
$PLIMMAX
 10
12.0
 20
9.0
  9
$UNITMODE
 70
     0
  9
$VISRETAIN
 70
     1
  9
$PLINEGEN
 70
     0
  9
$PSLTSCALE
 70
     1
  0
ENDSEC
  0
SECTION
  2
TABLES
  0
TABLE
  2
VPORT
 70
     1
  0
VPORT
  2
*ACTIVE
 70
     0
 10
0.0
 20
0.0
 11
1.0
 21
1.0
 12
2158.6263483807229
 22
1589.3388624794829
 13
0.0
 23
0.0
 14
0.5
 24
0.5
 15
0.5
 25
0.5
 16
0.0
 26
0.0
 36
1.0
 17
0.0
 27
0.0
 37
0.0
 40
263.98036092424883
 41
2.1408934707903771
 42
50.0
 43
0.0
 44
0.0
 50
0.0
 51
0.0
 71
     0
 72
  2000
 73
     1
 74
     3
 75
     0
 76
     0
 77
     0
 78
     0
  0
ENDTAB
  0
TABLE
  2
LTYPE
 70
     4
  0
LTYPE
  2
CONTINUOUS
 70
     0
  3
Solid line
 72
    65
 73
     0
 40
0.0
  0
LTYPE
  2
PHANTOM2
 70
     0
  3
Phantom (.5x) ___ _ _ ___ _ _ ___ _ _ ___ _ _
 72
    65
 73
     6
 40
1.25
 49
0.625
 49
-0.125
 49
0.125
 49
-0.125
 49
0.125
 49
-0.125
  0
LTYPE
  2
CENTER
 70
     0
  3
___ _ ___ _ ___ _ ___ _ ___ _ ___ _ ___ _ ___ _
 72
    65
 73
     4
 40
0.95
 49
0.625
 49
-0.125
 49
0.075
 49
-0.125
  0
LTYPE
  2
DASHED2
 70
     0
  3
Dashed (.5x) _ _ _ _ _ _ _ _ _ _ _ _ _ _ _ _ _
 72
    65
 73
     2
 40
0.375
 49
0.25
 49
-0.125
  0
ENDTAB
  0
TABLE
  2
LAYER
 70
     4
  0
LAYER
  2
0
 70
     0
 62
     7
  6
CONTINUOUS
  0
LAYER
  2
HIDE
 70
     0
 62
     1
  6
DASHED2
  0
LAYER
  2
CENTER
 70
     0
 62
     3
  6
CENTER
  0
ENDTAB
  0
TABLE
  2
STYLE
 70
     3
  0
STYLE
  2
STANDARD
 70
     0
 40
5.0
 41
1.0
 50
0.0
 71
     0
 42
5.0
  3
txt.shx
  4
whgtxt.shx
  0
STYLE
  2
BIG
 70
     0
 40
20.0
 41
1.0
 50
0.0
 71
     0
 42
2.5
  3
txt
  4

  0
ENDTAB
  0
TABLE
  2
VIEW
 70
     0
  0
ENDTAB
  0
TABLE
  2
UCS
 70
     0
  0
ENDTAB
  0
TABLE
  2
APPID
 70
    11
  0
APPID
  2
ACAD
 70
     0
  0
APPID
  2
ACADANNOTATIVE
 70
     0
  0
APPID
  2
ACAD_EXEMPT_FROM_CAD_STANDARDS
 70
     0
  0
APPID
  2
ACAD_DSTYLE_DIMJOGGED_JOGA
 70
     0
  0
APPID
  2
ACAD_PSEXT
 70
     0
  0
APPID
  2
ACAECLAYERSTANDARD
 70
     0
  0
APPID
  2
DCO15
 70
     0
  0
APPID
  2
CONTENTBLOCKICON
 70
     0
  0
APPID
  2
ACAD_NAV_VCDISPLAY
 70
     0
  0
APPID
  2
ACAD_MLEADERVER
 70
     0
  0
APPID
  2
ACAD_DSTYLE_DIMRADIAL_EXTENSION
 70
     0
  0
ENDTAB
  0
TABLE
  2
DIMSTYLE
 70
     3
  0
DIMSTYLE
  2
DUKITEC
 70
     0
  3

  4

  5

  6

  7

 40
1.0
 41
3.0
 42
1.0
 43
0.0
 44
1.0
 45
0.0
 46
0.0
 47
0.0
 48
0.0
140
3.0
141
0.0
142
0.0
143
25.399999999999999
144
1.0
145
0.0
146
1.0
147
1.0
 71
     0
 72
     0
 73
     0
 74
     0
 75
     0
 76
     0
 77
     1
 78
     8
170
     0
171
     2
172
     1
173
     0
174
     1
175
     0
176
     5
177
     5
178
     0
  0
ENDTAB
  0
ENDSEC
  0
SECTION
  2
BLOCKS
  0
BLOCK
  8
0
  2
$MODEL_SPACE
 70
     0
 10
0.0
 20
0.0
 30
0.0
  3
$MODEL_SPACE
  1

  0
ENDBLK
  5
14376
  8
0
  0
BLOCK
 67
     1
  8
0
  2
$PAPER_SPACE
 70
     0
 10
0.0
 20
0.0
 30
0.0
  3
$PAPER_SPACE
  1

  0
ENDBLK
  5
14372
 67
     1
  8
0
  0
ENDSEC
  0
SECTION
  2
ENTITIES
  0
TEXT
  5
1404C
  8
0
 10
2066.7134473518458
 20
1470.8996968129841
 30
0.0
 40
20.0
  1
FK 35DFD
  7
BIG
  0
ARC
  5
14153
  8
HIDE
 10
2047.893265565345
 20
1613.588875809023
 30
0.0
 40
17.5
 50
270.0
 51
180.0
  0
LINE
  5
14154
  8
0
 10
2053.8448956954571
 20
1584.185166879802
 30
0.0
 11
2077.296974494569
 21
1607.63724567892
 31
0.0
  0
LINE
  5
14155
  8
0
 10
2018.4895566361199
 20
1619.5405059391221
 30
0.0
 11
2041.9416354352261
 21
1642.9925847382431
 31
0.0
  0
LINE
  5
14156
  8
0
 10
2041.941635435255
 20
1584.1851668797981
 30
0.0
 11
2018.4895566361199
 21
1607.637245678942
 31
0.0
  0
LINE
  5
14157
  8
0
 10
2077.2969744945631
 20
1619.5405059391419
 30
0.0
 11
2053.8448956954712
 21
1642.992584738241
 31
0.0
  0
CIRCLE
  5
14158
  8
0
 10
2047.893265565345
 20
1613.588875809023
 30
0.0
 40
16.75
  0
ARC
  5
14159
  8
0
 10
2047.893265565345
 20
1613.588875809023
 30
0.0
 40
30.0
 50
348.5573097618821
 51
11.44269023811788
  0
ARC
  5
1415A
  8
0
 10
2047.893265565345
 20
1613.588875809023
 30
0.0
 40
30.0
 50
78.55730976169491
 51
101.4426902383051
  0
ARC
  5
1415B
  8
0
 10
2047.893265565345
 20
1613.588875809023
 30
0.0
 40
30.0
 50
168.5573097618821
 51
191.4426902380101
  0
ARC
  5
1415C
  8
0
 10
2047.893265565345
 20
1613.588875809023
 30
0.0
 40
30.0
 50
258.5573097621201
 51
281.44269023787979
  0
CIRCLE
  5
1415D
  8
HIDE
 10
2047.893265565345
 20
1613.588875809025
 30
0.0
 40
23.0
  0
LINE
  5
1415E
  8
HIDE
 10
2043.8932655653371
 20
1643.321013303658
 30
0.0
 11
2043.89326556533
 21
1629.8542531486321
 31
0.0
  0
LINE
  5
1415F
  8
HIDE
 10
2051.893265565338
 20
1643.3210133036609
 30
0.0
 11
2051.893265565338
 21
1629.8542531486389
 31
0.0
  0
LINE
  5
14160
  8
HIDE
 10
2044.493265565344
 20
1643.3955864628331
 30
0.0
 11
2044.493265565344
 21
1629.9901714895491
 31
0.0
  0
LINE
  5
14161
  8
HIDE
 10
2051.2932655653321
 20
1643.395586462836
 30
0.0
 11
2051.2932655653449
 21
1629.9901714895491
 31
0.0
  0
LINE
  5
14162
  8
HIDE
 10
2044.493265565344
 20
1633.588875809023
 30
0.0
 11
2051.2932655653449
 21
1633.588875809023
 31
0.0
  0
LINE
  5
14163
  8
HIDE
 10
2044.493265565344
 20
1633.588875809023
 30
0.0
 11
2043.8932655653371
 21
1634.62810629356
 31
0.0
  0
LINE
  5
14164
  8
HIDE
 10
2051.2932655653449
 20
1633.588875809023
 30
0.0
 11
2051.893265565338
 21
1634.62810629356
 31
0.0
  0
LINE
  5
14165
  8
HIDE
 10
2043.8932655653371
 20
1634.62810629356
 30
0.0
 11
2051.893265565338
 21
1634.62810629356
 31
0.0
  0
LINE
  5
14166
  8
HIDE
 10
2043.8932655653371
 20
1642.62810629356
 30
0.0
 11
2051.893265565338
 21
1642.62810629356
 31
0.0
  0
LINE
  5
14167
  8
HIDE
 10
2043.893265565323
 20
1583.856738314397
 30
0.0
 11
2043.893265565323
 21
1597.3234984694241
 31
0.0
  0
LINE
  5
14168
  8
HIDE
 10
2051.893265565323
 20
1583.85673831439
 30
0.0
 11
2051.8932655653298
 21
1597.323498469412
 31
0.0
  0
LINE
  5
14169
  8
HIDE
 10
2044.493265565329
 20
1583.782165155221
 30
0.0
 11
2044.4932655653361
 21
1597.1875801285071
 31
0.0
  0
LINE
  5
1416A
  8
HIDE
 10
2051.2932655653171
 20
1583.782165155216
 30
0.0
 11
2051.293265565339
 21
1597.187580128503
 31
0.0
  0
LINE
  5
1416B
  8
HIDE
 10
2044.493265565329
 20
1593.5888758090321
 30
0.0
 11
2051.2932655653321
 21
1593.5888758090291
 31
0.0
  0
LINE
  5
1416C
  8
HIDE
 10
2044.493265565329
 20
1593.5888758090321
 30
0.0
 11
2043.893265565323
 21
1592.549645324495
 31
0.0
  0
LINE
  5
1416D
  8
HIDE
 10
2051.2932655653321
 20
1593.5888758090291
 30
0.0
 11
2051.893265565323
 21
1592.54964532449
 31
0.0
  0
LINE
  5
1416E
  8
HIDE
 10
2043.893265565323
 20
1592.549645324495
 30
0.0
 11
2051.893265565323
 21
1592.54964532449
 31
0.0
  0
LINE
  5
1416F
  8
HIDE
 10
2043.893265565323
 20
1584.549645324495
 30
0.0
 11
2051.893265565323
 21
1584.54964532449
 31
0.0
  0
LINE
  5
14170
  8
CENTER
 10
2176.5083785653442
 20
1613.588875809023
 30
0.0
 11
2203.5083785653442
 21
1613.588875809023
 31
0.0
  0
LINE
  5
14172
  8
0
 10
2179.5083785653442
 20
1583.588875809023
 30
0.0
 11
2179.5083785653442
 21
1643.588875809023
 31
0.0
  0
LINE
  5
14173
  8
HIDE
 10
2200.5083785653442
 20
1590.5888758090341
 30
0.0
 11
2200.5083785653442
 21
1636.588875809025
 31
0.0
  0
LINE
  5
14174
  8
HIDE
 10
2200.0083785653442
 20
1583.588875809023
 30
0.0
 11
2200.0083785653442
 21
1643.588875809023
 31
0.0
  0
LINE
  5
14175
  8
0
 10
2179.5083785653442
 20
1643.588875809023
 30
0.0
 11
2194.5083485653458
 21
1643.588875809023
 31
0.0
  0
LINE
  5
14176
  8
0
 10
2179.5083785653442
 20
1583.588875809023
 30
0.0
 11
2194.5083485653458
 21
1583.588875809023
 31
0.0
  0
LINE
  5
14177
  8
HIDE
 10
2200.0083785653369
 20
1637.0888758090359
 30
0.0
 11
2200.508378565336
 21
1636.588875809023
 31
0.0
  0
LINE
  5
14178
  8
HIDE
 10
2200.0083785653369
 20
1590.08887580901
 30
0.0
 11
2200.508378565336
 21
1590.588875809023
 31
0.0
  0
LINE
  5
14179
  8
HIDE
 10
2200.508378565336
 20
1631.088875809023
 30
0.0
 11
2179.5083785653442
 21
1631.088875809023
 31
0.0
  0
LINE
  5
1417A
  8
HIDE
 10
2200.508378565336
 20
1630.3388758090209
 30
0.0
 11
2179.5083785653442
 21
1630.338875809023
 31
0.0
  0
LINE
  5
1417B
  8
HIDE
 10
2200.508378565336
 20
1596.088875809023
 30
0.0
 11
2179.5083785653442
 21
1596.088875809023
 31
0.0
  0
LINE
  5
1417C
  8
HIDE
 10
2200.508378565336
 20
1596.838875809025
 30
0.0
 11
2179.5083785653442
 21
1596.838875809023
 31
0.0
  0
LINE
  5
1417D
  8
CENTER
 10
2186.5083785653442
 20
1646.0412221890081
 30
0.0
 11
2186.5083785653442
 21
1628.439822681722
 31
0.0
  0
LINE
  5
1417E
  8
HIDE
 10
2190.508378565351
 20
1643.588875809023
 30
0.0
 11
2190.5083785653592
 21
1630.338875809023
 31
0.0
  0
LINE
  5
1417F
  8
HIDE
 10
2182.508378565351
 20
1643.588875809023
 30
0.0
 11
2182.508378565351
 21
1630.338875809023
 31
0.0
  0
LINE
  5
14180
  8
HIDE
 10
2189.9083785653461
 20
1643.588875809023
 30
0.0
 11
2189.9083785653461
 21
1630.3388758090209
 31
0.0
  0
LINE
  5
14181
  8
HIDE
 10
2183.1083785653568
 20
1643.588875809023
 30
0.0
 11
2183.1083785653432
 21
1630.338875809023
 31
0.0
  0
LINE
  5
14182
  8
HIDE
 10
2189.9083785653461
 20
1633.588875809023
 30
0.0
 11
2183.1083785653432
 21
1633.588875809023
 31
0.0
  0
LINE
  5
14183
  8
HIDE
 10
2189.9083785653461
 20
1633.588875809023
 30
0.0
 11
2190.508378565351
 21
1634.62810629356
 31
0.0
  0
LINE
  5
14184
  8
HIDE
 10
2183.1083785653432
 20
1633.588875809023
 30
0.0
 11
2182.508378565351
 21
1634.62810629356
 31
0.0
  0
LINE
  5
14185
  8
HIDE
 10
2190.508378565351
 20
1634.62810629356
 30
0.0
 11
2182.508378565351
 21
1634.62810629356
 31
0.0
  0
LINE
  5
14186
  8
HIDE
 10
2190.508378565351
 20
1642.62810629356
 30
0.0
 11
2182.508378565351
 21
1642.62810629356
 31
0.0
  0
LINE
  5
14187
  8
CENTER
 10
2186.5083785653442
 20
1581.1365294290381
 30
0.0
 11
2186.5083785653442
 21
1598.7379289363239
 31
0.0
  0
LINE
  5
14188
  8
HIDE
 10
2190.508378565351
 20
1583.588875809023
 30
0.0
 11
2190.5083785653592
 21
1596.838875809023
 31
0.0
  0
LINE
  5
14189
  8
HIDE
 10
2182.508378565351
 20
1583.588875809023
 30
0.0
 11
2182.508378565351
 21
1596.838875809023
 31
0.0
  0
LINE
  5
1418A
  8
HIDE
 10
2189.9083785653461
 20
1583.588875809023
 30
0.0
 11
2189.9083785653461
 21
1596.838875809025
 31
0.0
  0
LINE
  5
1418B
  8
HIDE
 10
2183.1083785653568
 20
1583.588875809023
 30
0.0
 11
2183.1083785653432
 21
1596.838875809023
 31
0.0
  0
LINE
  5
1418C
  8
HIDE
 10
2189.9083785653461
 20
1593.588875809023
 30
0.0
 11
2183.1083785653432
 21
1593.588875809023
 31
0.0
  0
LINE
  5
1418D
  8
HIDE
 10
2189.9083785653461
 20
1593.588875809023
 30
0.0
 11
2190.508378565351
 21
1592.5496453244859
 31
0.0
  0
LINE
  5
1418E
  8
HIDE
 10
2183.1083785653432
 20
1593.588875809023
 30
0.0
 11
2182.508378565351
 21
1592.5496453244859
 31
0.0
  0
LINE
  5
1418F
  8
HIDE
 10
2190.508378565351
 20
1592.5496453244859
 30
0.0
 11
2182.508378565351
 21
1592.5496453244859
 31
0.0
  0
LINE
  5
14190
  8
HIDE
 10
2190.508378565351
 20
1584.5496453244859
 30
0.0
 11
2182.508378565351
 21
1584.5496453244859
 31
0.0
  0
LINE
  5
14191
  8
HIDE
 10
2200.508378565341
 20
1633.5888758090291
 30
0.0
 11
2200.5083785653469
 21
1593.58887580903
 31
0.0
  0
LINE
  5
14192
  8
HIDE
 10
2200.0083785653442
 20
1583.588875809023
 30
0.0
 11
2194.5083485653458
 21
1583.588875809023
 31
0.0
  0
LINE
  5
14193
  8
HIDE
 10
2194.5083485653458
 20
1643.588875809023
 30
0.0
 11
2200.0083785653442
 21
1643.588875809023
 31
0.0
  0
LINE
  5
14194
  8
HIDE
 10
2200.5083785653442
 20
1632.8388758090291
 30
0.0
 11
2200.5083785653442
 21
1594.3388758090291
 31
0.0
  0
LINE
  5
14195
  8
CENTER
 10
2203.5942591784742
 20
1549.837771370899
 30
0.0
 11
2231.2445845560719
 21
1549.837771370899
 31
0.0
  0
LINE
  5
14196
  8
HIDE
 10
2208.5083785653442
 20
1541.0877708090229
 30
0.0
 11
2219.5083785653442
 21
1541.0877708090229
 31
0.0
  0
LINE
  5
14197
  8
HIDE
 10
2219.5083785653442
 20
1544.3377708090229
 30
0.0
 11
2226.5083785653442
 21
1544.3377708090229
 31
0.0
  0
LINE
  5
14198
  8
HIDE
 10
2219.5083785653442
 20
1555.3377708090229
 30
0.0
 11
2226.5083785653442
 21
1555.3377708090229
 31
0.0
  0
LINE
  5
14199
  8
HIDE
 10
2208.5083785653442
 20
1558.5877708090229
 30
0.0
 11
2219.5083785653442
 21
1558.5877708090229
 31
0.0
  0
LINE
  5
1419A
  8
HIDE
 10
2219.5083785653442
 20
1541.0877708090229
 30
0.0
 11
2219.5083785653442
 21
1558.5877708090229
 31
0.0
  0
LINE
  5
1419B
  8
HIDE
 10
2219.5083785653442
 20
1686.089980809023
 30
0.0
 11
2219.5083785653442
 21
1668.589980809023
 31
0.0
  0
LINE
  5
1419C
  8
HIDE
 10
2208.5083785653442
 20
1668.589980809023
 30
0.0
 11
2219.5083785653442
 21
1668.589980809023
 31
0.0
  0
LINE
  5
1419D
  8
HIDE
 10
2219.5083785653442
 20
1671.839980809023
 30
0.0
 11
2226.5083785653442
 21
1671.839980809023
 31
0.0
  0
LINE
  5
1419E
  8
HIDE
 10
2219.5083785653442
 20
1682.839980809023
 30
0.0
 11
2226.5083785653442
 21
1682.839980809023
 31
0.0
  0
LINE
  5
1419F
  8
HIDE
 10
2208.5083785653442
 20
1686.089980809023
 30
0.0
 11
2219.5083785653442
 21
1686.089980809023
 31
0.0
  0
LINE
  5
141A0
  8
CENTER
 10
2203.5942591784742
 20
1677.3399802471481
 30
0.0
 11
2231.2445845560719
 21
1677.3399802471481
 31
0.0
  0
LINE
  5
141A1
  8
0
 10
2194.5083785653442
 20
1557.588875809023
 30
0.0
 11
2208.5083785653442
 21
1557.588875809023
 31
0.0
  0
LINE
  5
141A2
  8
0
 10
2226.5083785653442
 20
1536.588875809023
 30
0.0
 11
2208.5083785653442
 21
1536.588875809023
 31
0.0
  0
LINE
  5
141A3
  8
0
 10
2208.5083785653442
 20
1690.588875809023
 30
0.0
 11
2226.5083785653442
 21
1690.588875809023
 31
0.0
  0
LINE
  5
141A4
  8
0
 10
2194.5083785653442
 20
1669.588875809023
 30
0.0
 11
2208.5083785653442
 21
1669.588875809023
 31
0.0
  0
LINE
  5
141A5
  8
0
 10
2275.5083785653442
 20
1663.588875809023
 30
0.0
 11
2226.5083785653442
 21
1663.588875809023
 31
0.0
  0
LINE
  5
141A6
  8
0
 10
2275.5083785653442
 20
1563.588875809023
 30
0.0
 11
2226.5083785653442
 21
1563.588875809023
 31
0.0
  0
LINE
  5
141A7
  8
0
 10
2275.5083785653442
 20
1663.588875809023
 30
0.0
 11
2275.5083785653442
 21
1563.588875809023
 31
0.0
  0
LINE
  5
141A8
  8
0
 10
2226.5083785653442
 20
1690.588875809023
 30
0.0
 11
2226.5083785653442
 21
1663.588875809023
 31
0.0
  0
LINE
  5
141A9
  8
0
 10
2208.5083785653442
 20
1690.588875809023
 30
0.0
 11
2208.5083785653442
 21
1536.588875809023
 31
0.0
  0
LINE
  5
141AA
  8
0
 10
2194.5083785653442
 20
1669.588875809023
 30
0.0
 11
2194.5083785653442
 21
1557.588875809023
 31
0.0
  0
LINE
  5
141AB
  8
CENTER
 10
2177.8415050358781
 20
1613.588875809023
 30
0.0
 11
2281.9713926168511
 21
1613.588875809023
 31
0.0
  0
LINE
  5
141AC
  8
HIDE
 10
2200.5083785653442
 20
1593.588875809023
 30
0.0
 11
2212.5083785653442
 21
1593.588875809023
 31
0.0
  0
LINE
  5
141AD
  8
HIDE
 10
2263.5083785653428
 20
1593.588875809023
 30
0.0
 11
2275.5083785653442
 21
1593.588875809023
 31
0.0
  0
LINE
  5
141AE
  8
HIDE
 10
2200.5083785653442
 20
1633.588875809023
 30
0.0
 11
2212.5083785653442
 21
1633.588875809023
 31
0.0
  0
LINE
  5
141AF
  8
HIDE
 10
2263.5083785653428
 20
1633.588875809023
 30
0.0
 11
2275.5083785653442
 21
1633.588875809023
 31
0.0
  0
CIRCLE
  5
141B0
  8
HIDE
 10
2238.0083785653442
 20
1586.838875809023
 30
0.0
 40
5.549999999999998
  0
CIRCLE
  5
141B1
  8
HIDE
 10
2238.0083785653442
 20
1640.338875809023
 30
0.0
 40
5.549999999999998
  0
CIRCLE
  5
141B2
  8
HIDE
 10
2221.0083785653442
 20
1586.838875809023
 30
0.0
 40
5.549999999999998
  0
CIRCLE
  5
141B3
  8
HIDE
 10
2221.0083785653442
 20
1640.338875809023
 30
0.0
 40
5.549999999999998
  0
ARC
  5
141B4
  8
HIDE
 10
2228.9083785653438
 20
1648.9888758090219
 30
0.0
 40
0.6000000000000015
 50
0.0
 51
90.0
  0
ARC
  5
141B5
  8
HIDE
 10
2213.6083785653409
 20
1648.4888758090231
 30
0.0
 40
1.1000000000000001
 50
90.0
 51
180.0
  0
ARC
  5
141B6
  8
HIDE
 10
2228.4083785653429
 20
1632.1888758090231
 30
0.0
 40
1.1000000000000001
 50
270.0
 51
0.0
  0
ARC
  5
141B7
  8
HIDE
 10
2228.4083785653429
 20
1594.9888758090231
 30
0.0
 40
1.1000000000000001
 50
0.0
 51
90.0
  0
ARC
  5
141B8
  8
HIDE
 10
2213.1083785653409
 20
1631.6888758090231
 30
0.0
 40
0.6000000000000015
 50
180.0
 51
270.0
  0
ARC
  5
141B9
  8
HIDE
 10
2213.1083785653409
 20
1595.4888758090231
 30
0.0
 40
0.6000000000000015
 50
90.0
 51
180.0
  0
ARC
  5
141BA
  8
HIDE
 10
2228.9083785653438
 20
1578.1888758090231
 30
0.0
 40
0.6000000000000015
 50
270.0
 51
0.0
  0
ARC
  5
141BB
  8
HIDE
 10
2213.6083785653409
 20
1578.6888758090231
 30
0.0
 40
1.1000000000000001
 50
180.0
 51
270.0
  0
LINE
  5
141BC
  8
HIDE
 10
2212.5083785653442
 20
1642.7388758090231
 30
0.0
 11
2216.0041303700591
 21
1642.7388758090231
 31
0.0
  0
LINE
  5
141BD
  8
HIDE
 10
2213.6083785653409
 20
1649.588875809023
 30
0.0
 11
2228.9083785653438
 21
1649.588875809023
 31
0.0
  0
LINE
  5
141BE
  8
HIDE
 10
2229.5083785653442
 20
1637.9388758090231
 30
0.0
 11
2226.0126267606279
 21
1637.9388758090231
 31
0.0
  0
LINE
  5
141BF
  8
HIDE
 10
2222.9688715798829
 20
1645.5310783416619
 30
0.0
 11
2229.5083785653442
 21
1646.1888758090231
 31
0.0
  0
LINE
  5
141C0
  8
HIDE
 10
2212.5083785653442
 20
1637.9388758090231
 30
0.0
 11
2216.0041303700591
 21
1637.9388758090231
 31
0.0
  0
LINE
  5
141C1
  8
HIDE
 10
2212.5083785653442
 20
1589.2388758090231
 30
0.0
 11
2216.0041303700591
 21
1589.2388758090231
 31
0.0
  0
LINE
  5
141C2
  8
HIDE
 10
2213.1083785653409
 20
1631.088875809023
 30
0.0
 11
2228.4083785653429
 21
1631.088875809023
 31
0.0
  0
LINE
  5
141C3
  8
HIDE
 10
2213.1083785653409
 20
1596.088875809023
 30
0.0
 11
2228.4083785653429
 21
1596.088875809023
 31
0.0
  0
LINE
  5
141C4
  8
HIDE
 10
2229.5083785653442
 20
1589.2388758090231
 30
0.0
 11
2226.0126267606279
 21
1589.2388758090231
 31
0.0
  0
LINE
  5
141C5
  8
HIDE
 10
2212.5083785653442
 20
1584.4388758090231
 30
0.0
 11
2216.0041303700591
 21
1584.4388758090231
 31
0.0
  0
LINE
  5
141C6
  8
HIDE
 10
2228.9083785653438
 20
1577.588875809023
 30
0.0
 11
2213.6083785653409
 21
1577.588875809023
 31
0.0
  0
LINE
  5
141C7
  8
HIDE
 10
2222.9688715798829
 20
1581.6466732763849
 30
0.0
 11
2229.5083785653442
 21
1580.9888758090231
 31
0.0
  0
LINE
  5
141C8
  8
HIDE
 10
2212.5083785653442
 20
1578.6888758090231
 30
0.0
 11
2212.5083785653442
 21
1648.4888758090231
 31
0.0
  0
LINE
  5
141C9
  8
HIDE
 10
2229.5083785653442
 20
1648.9888758090219
 30
0.0
 11
2229.5083785653442
 21
1578.1888758090231
 31
0.0
  0
ARC
  5
141CA
  8
HIDE
 10
2230.1083785653418
 20
1578.1888758090231
 30
0.0
 40
0.6000000000000015
 50
180.0
 51
270.0
  0
ARC
  5
141CB
  8
HIDE
 10
2245.4083785653429
 20
1578.6888758090231
 30
0.0
 40
1.1000000000000001
 50
270.0
 51
0.0
  0
ARC
  5
141CC
  8
HIDE
 10
2230.6083785653409
 20
1594.988875809024
 30
0.0
 40
1.1000000000000001
 50
90.0
 51
180.0
  0
ARC
  5
141CD
  8
HIDE
 10
2230.6083785653441
 20
1632.1888758090231
 30
0.0
 40
1.0999999999999981
 50
180.0
 51
270.0
  0
ARC
  5
141CE
  8
HIDE
 10
2245.9083785653429
 20
1595.4888758090231
 30
0.0
 40
0.6
 50
0.0
 51
90.0
  0
ARC
  5
141CF
  8
HIDE
 10
2245.9083785653429
 20
1631.6888758090231
 30
0.0
 40
0.6000000000000015
 50
270.0
 51
0.0
  0
ARC
  5
141D0
  8
HIDE
 10
2230.1083785653441
 20
1648.988875809024
 30
0.0
 40
0.6000000000000015
 50
90.0
 51
180.0
  0
ARC
  5
141D1
  8
HIDE
 10
2245.4083785653429
 20
1648.4888758090231
 30
0.0
 40
1.1000000000000001
 50
0.0
 51
90.0
  0
LINE
  5
141D2
  8
HIDE
 10
2246.5083785653442
 20
1584.4388758090231
 30
0.0
 11
2243.0126267606279
 21
1584.4388758090231
 31
0.0
  0
LINE
  5
141D3
  8
HIDE
 10
2245.4083785653429
 20
1577.588875809023
 30
0.0
 11
2230.1083785653418
 21
1577.588875809023
 31
0.0
  0
LINE
  5
141D4
  8
HIDE
 10
2229.5083785653442
 20
1589.238875809024
 30
0.0
 11
2233.00413037006
 21
1589.238875809024
 31
0.0
  0
LINE
  5
141D5
  8
HIDE
 10
2236.047885550804
 20
1581.6466732763849
 30
0.0
 11
2229.5083785653442
 21
1580.988875809024
 31
0.0
  0
LINE
  5
141D6
  8
HIDE
 10
2246.5083785653442
 20
1589.2388758090231
 30
0.0
 11
2243.0126267606279
 21
1589.2388758090231
 31
0.0
  0
LINE
  5
141D7
  8
HIDE
 10
2246.5083785653442
 20
1637.9388758090231
 30
0.0
 11
2243.0126267606279
 21
1637.9388758090231
 31
0.0
  0
LINE
  5
141D8
  8
HIDE
 10
2245.9083785653429
 20
1596.088875809023
 30
0.0
 11
2230.6083785653409
 21
1596.088875809023
 31
0.0
  0
LINE
  5
141D9
  8
HIDE
 10
2245.9083785653429
 20
1631.088875809023
 30
0.0
 11
2230.6083785653441
 21
1631.088875809023
 31
0.0
  0
LINE
  5
141DA
  8
HIDE
 10
2229.5083785653442
 20
1637.9388758090231
 30
0.0
 11
2233.00413037006
 21
1637.9388758090231
 31
0.0
  0
LINE
  5
141DB
  8
HIDE
 10
2246.5083785653442
 20
1642.7388758090231
 30
0.0
 11
2243.0126267606279
 21
1642.7388758090231
 31
0.0
  0
LINE
  5
141DC
  8
HIDE
 10
2230.1083785653441
 20
1649.588875809023
 30
0.0
 11
2245.4083785653452
 21
1649.588875809023
 31
0.0
  0
LINE
  5
141DD
  8
HIDE
 10
2236.047885550804
 20
1645.5310783416619
 30
0.0
 11
2229.5083785653442
 21
1646.1888758090231
 31
0.0
  0
LINE
  5
141DE
  8
HIDE
 10
2246.5083785653442
 20
1648.4888758090231
 30
0.0
 11
2246.5083785653442
 21
1578.6888758090231
 31
0.0
  0
CIRCLE
  5
141DF
  8
HIDE
 10
2255.0083785653442
 20
1586.838875809023
 30
0.0
 40
5.549999999999998
  0
CIRCLE
  5
141E0
  8
HIDE
 10
2255.0083785653442
 20
1640.338875809023
 30
0.0
 40
5.549999999999998
  0
LINE
  5
141E1
  8
HIDE
 10
2246.5083785653442
 20
1648.9888758090219
 30
0.0
 11
2246.5083785653442
 21
1578.1888758090231
 31
0.0
  0
ARC
  5
141E2
  8
HIDE
 10
2247.1083785653409
 20
1578.1888758090231
 30
0.0
 40
0.6000000000000015
 50
180.0
 51
270.0
  0
ARC
  5
141E3
  8
HIDE
 10
2262.4083785653429
 20
1578.6888758090231
 30
0.0
 40
1.1000000000000001
 50
270.0
 51
0.0
  0
ARC
  5
141E4
  8
HIDE
 10
2247.6083785653418
 20
1594.988875809024
 30
0.0
 40
1.1000000000000001
 50
90.0
 51
180.0
  0
ARC
  5
141E5
  8
HIDE
 10
2247.6083785653441
 20
1632.1888758090231
 30
0.0
 40
1.0999999999999981
 50
180.0
 51
270.0
  0
ARC
  5
141E6
  8
HIDE
 10
2262.9083785653429
 20
1595.4888758090231
 30
0.0
 40
0.6
 50
0.0
 51
90.0
  0
ARC
  5
141E7
  8
HIDE
 10
2262.9083785653429
 20
1631.6888758090231
 30
0.0
 40
0.6000000000000015
 50
270.0
 51
0.0
  0
ARC
  5
141E8
  8
HIDE
 10
2247.1083785653441
 20
1648.988875809024
 30
0.0
 40
0.6000000000000015
 50
90.0
 51
180.0
  0
ARC
  5
141E9
  8
HIDE
 10
2262.4083785653429
 20
1648.4888758090231
 30
0.0
 40
1.1000000000000001
 50
0.0
 51
90.0
  0
LINE
  5
141EA
  8
HIDE
 10
2263.5083785653442
 20
1584.4388758090231
 30
0.0
 11
2260.0126267606279
 21
1584.4388758090231
 31
0.0
  0
LINE
  5
141EB
  8
HIDE
 10
2262.4083785653429
 20
1577.588875809023
 30
0.0
 11
2247.1083785653409
 21
1577.588875809023
 31
0.0
  0
LINE
  5
141EC
  8
HIDE
 10
2246.5083785653442
 20
1589.238875809024
 30
0.0
 11
2250.00413037006
 21
1589.238875809024
 31
0.0
  0
LINE
  5
141ED
  8
HIDE
 10
2253.047885550804
 20
1581.6466732763849
 30
0.0
 11
2246.5083785653442
 21
1580.988875809024
 31
0.0
  0
LINE
  5
141EE
  8
HIDE
 10
2263.5083785653442
 20
1589.2388758090231
 30
0.0
 11
2260.0126267606279
 21
1589.2388758090231
 31
0.0
  0
LINE
  5
141EF
  8
HIDE
 10
2263.5083785653442
 20
1637.9388758090231
 30
0.0
 11
2260.0126267606279
 21
1637.9388758090231
 31
0.0
  0
LINE
  5
141F0
  8
HIDE
 10
2262.9083785653429
 20
1596.088875809023
 30
0.0
 11
2247.6083785653418
 21
1596.088875809023
 31
0.0
  0
LINE
  5
141F1
  8
HIDE
 10
2262.9083785653429
 20
1631.088875809023
 30
0.0
 11
2247.6083785653441
 21
1631.088875809023
 31
0.0
  0
LINE
  5
141F2
  8
HIDE
 10
2246.5083785653442
 20
1637.9388758090231
 30
0.0
 11
2250.00413037006
 21
1637.9388758090231
 31
0.0
  0
LINE
  5
141F3
  8
HIDE
 10
2263.5083785653442
 20
1642.7388758090231
 30
0.0
 11
2260.0126267606279
 21
1642.7388758090231
 31
0.0
  0
LINE
  5
141F4
  8
HIDE
 10
2247.1083785653441
 20
1649.588875809023
 30
0.0
 11
2262.4083785653452
 21
1649.588875809023
 31
0.0
  0
LINE
  5
141F5
  8
HIDE
 10
2253.047885550804
 20
1645.5310783416619
 30
0.0
 11
2246.5083785653442
 21
1646.1888758090231
 31
0.0
  0
LINE
  5
141F6
  8
HIDE
 10
2263.5083785653442
 20
1648.4888758090231
 30
0.0
 11
2263.5083785653442
 21
1578.6888758090231
 31
0.0
  0
LINE
  5
141F7
  8
HIDE
 10
2263.5083785653442
 20
1631.088875809023
 30
0.0
 11
2275.5083785653442
 21
1631.088875809023
 31
0.0
  0
LINE
  5
141F8
  8
HIDE
 10
2263.5083785653442
 20
1596.088875809023
 30
0.0
 11
2275.5083785653442
 21
1596.088875809023
 31
0.0
  0
LINE
  5
141F9
  8
HIDE
 10
2200.5083785653442
 20
1596.088875809023
 30
0.0
 11
2212.5083785653442
 21
1596.088875809023
 31
0.0
  0
LINE
  5
141FA
  8
HIDE
 10
2200.5083785653442
 20
1631.088875809023
 30
0.0
 11
2212.5083785653442
 21
1631.088875809023
 31
0.0
  0
LINE
  5
141FB
  8
0
 10
2226.5083785653442
 20
1563.588875809023
 30
0.0
 11
2226.5083785653442
 21
1536.588875809023
 31
0.0
  0
CIRCLE
  5
14231
  8
0
 10
2047.893265565345
 20
1613.588875809023
 30
0.0
 40
31.0
  0
CIRCLE
  5
14232
  8
0
 10
2047.893265565345
 20
1613.588875809023
 30
0.0
 40
56.0
  0
ARC
  5
14233
  8
CENTER
 10
2047.893265565345
 20
1613.588875809023
 30
0.0
 40
66.0
 50
94.958778000026356
 51
114.427138999973
  0
ARC
  5
14234
  8
CENTER
 10
2047.893265565345
 20
1613.588875809023
 30
0.0
 40
66.0
 50
65.081980999999416
 51
84.472879000008376
  0
ARC
  5
14235
  8
CENTER
 10
2047.893265565345
 20
1613.588875809023
 30
0.0
 40
66.0
 50
35.376434999978471
 51
54.778217000021442
  0
ARC
  5
14236
  8
CENTER
 10
2047.893265565345
 20
1613.588875809023
 30
0.0
 40
66.0
 50
305.19538400000238
 51
324.4071390000359
  0
ARC
  5
14237
  8
CENTER
 10
2047.893265565345
 20
1613.588875809023
 30
0.0
 40
66.0
 50
274.8819159999897
 51
295.58237499997892
  0
ARC
  5
14238
  8
CENTER
 10
2047.893265565345
 20
1613.588875809023
 30
0.0
 40
66.0
 50
244.92369700001049
 51
265.37592599998828
  0
ARC
  5
14239
  8
CENTER
 10
2047.893265565345
 20
1613.588875809023
 30
0.0
 40
66.0
 50
215.09290700002151
 51
234.56785100000229
  0
CIRCLE
  5
1423A
  8
0
 10
2094.562313565345
 20
1566.919827809023
 30
0.0
 40
5.5
  0
CIRCLE
  5
1423B
  8
0
 10
2094.562313565345
 20
1566.919827809023
 30
0.0
 40
8.75
  0
CIRCLE
  5
1423C
  8
0
 10
2064.9753225653449
 20
1549.8377708090229
 30
0.0
 40
5.5
  0
CIRCLE
  5
1423D
  8
0
 10
2064.9753225653449
 20
1549.8377708090229
 30
0.0
 40
8.75
  0
CIRCLE
  5
1423E
  8
0
 10
2030.8112085653449
 20
1549.8377708090229
 30
0.0
 40
5.5
  0
CIRCLE
  5
1423F
  8
0
 10
2030.8112085653449
 20
1549.8377708090229
 30
0.0
 40
8.75
  0
CIRCLE
  5
14240
  8
0
 10
2001.224217565345
 20
1566.919827809023
 30
0.0
 40
5.5
  0
CIRCLE
  5
14241
  8
0
 10
2001.224217565345
 20
1566.919827809023
 30
0.0
 40
8.75
  0
CIRCLE
  5
14242
  8
0
 10
2001.224217565345
 20
1660.2579238090229
 30
0.0
 40
5.5
  0
CIRCLE
  5
14243
  8
0
 10
2001.224217565345
 20
1660.2579238090229
 30
0.0
 40
8.75
  0
CIRCLE
  5
14244
  8
0
 10
2030.8112085653449
 20
1677.339980809023
 30
0.0
 40
5.5
  0
CIRCLE
  5
14245
  8
0
 10
2030.8112085653449
 20
1677.339980809023
 30
0.0
 40
8.75
  0
CIRCLE
  5
14246
  8
0
 10
2064.9753225653449
 20
1677.339980809023
 30
0.0
 40
5.5
  0
CIRCLE
  5
14247
  8
0
 10
2064.9753225653449
 20
1677.339980809023
 30
0.0
 40
8.75
  0
CIRCLE
  5
14248
  8
0
 10
2094.562313565345
 20
1660.2579238090229
 30
0.0
 40
8.75
  0
CIRCLE
  5
14249
  8
0
 10
2094.562313565345
 20
1660.2579238090229
 30
0.0
 40
5.5
  0
LINE
  5
1424A
  8
CENTER
 10
2033.700368565344
 20
1560.6202638090231
 30
0.0
 11
2027.3198805653451
 21
1536.8079568090229
 31
0.0
  0
LINE
  5
1424B
  8
CENTER
 10
2009.350649565346
 20
1575.046259809023
 30
0.0
 11
1991.7566205653461
 21
1557.4522308090229
 31
0.0
  0
LINE
  5
1424C
  8
CENTER
 10
2061.9339215653458
 20
1561.1884338090231
 30
0.0
 11
2068.3787655653441
 21
1537.135949809023
 31
0.0
  0
LINE
  5
1424D
  8
CENTER
 10
2086.4958505653449
 20
1574.9862908090231
 30
0.0
 11
2104.089338565344
 21
1557.3928028090229
 31
0.0
  0
LINE
  5
1424E
  8
CENTER
 10
2086.411634565346
 20
1652.1072448090231
 30
0.0
 11
2104.1815345653449
 21
1669.8771448090231
 31
0.0
  0
LINE
  5
1424F
  8
CENTER
 10
2061.9971475653442
 20
1666.2252788090229
 30
0.0
 11
2068.3604415653449
 21
1689.9734148090231
 31
0.0
  0
LINE
  5
14250
  8
CENTER
 10
2009.3748965653431
 20
1652.1072448090231
 30
0.0
 11
1992.308751565344
 21
1669.1733898090231
 31
0.0
  0
LINE
  5
14251
  8
CENTER
 10
2033.853738565344
 20
1665.985101809023
 30
0.0
 11
2027.115122565345
 21
1691.1339628090229
 31
0.0
  0
ARC
  5
14252
  8
CENTER
 10
2047.893265565345
 20
1613.588875809023
 30
0.0
 40
66.0
 50
125.1054809999989
 51
145.01828300001009
  0
ARC
  5
14253
  8
0
 10
2047.893265565345
 20
1613.588875809023
 30
0.0
 40
77.0
 50
38.81071399996403
 51
141.18928600003591
  0
ARC
  5
14254
  8
0
 10
2047.893265565345
 20
1613.588875809023
 30
0.0
 40
77.0
 50
218.81071399996401
 51
321.18928600003602
  0
LINE
  5
14255
  8
0
 10
1987.893265565345
 20
1661.848589809023
 30
0.0
 11
1987.893265565345
 21
1565.3291618090229
 31
0.0
  0
LINE
  5
14256
  8
0
 10
2107.8932655653448
 20
1661.848589809023
 30
0.0
 11
2107.8932655653448
 21
1565.3291618090229
 31
0.0
  0
ARC
  5
14257
  8
CENTER
 10
2047.893265565345
 20
1618.088875809023
 30
0.0
 40
38.5
 50
77.051749999985873
 51
104.7728919999728
  0
ARC
  5
14258
  8
CENTER
 10
2051.7903795653442
 20
1615.838875809023
 30
0.0
 40
38.5
 50
16.465443000008651
 51
43.632459000005021
  0
ARC
  5
14259
  8
CENTER
 10
2051.7903795653442
 20
1611.338875809023
 30
0.0
 40
38.5
 50
315.9667890000336
 51
344.66874700000398
  0
ARC
  5
1425A
  8
CENTER
 10
2047.893265565345
 20
1609.088875809023
 30
0.0
 40
38.5
 50
255.63859500002229
 51
283.58521200001547
  0
ARC
  5
1425B
  8
CENTER
 10
2043.9961515653449
 20
1611.338875809023
 30
0.0
 40
38.5
 50
195.69859699998241
 51
223.28990200000871
  0
LINE
  5
1425C
  8
0
 10
2006.7650695653449
 20
1595.9779618090231
 30
0.0
 11
2005.341565565345
 21
1590.6653738090231
 31
0.0
  0
LINE
  5
1425D
  8
0
 10
2005.341550565345
 20
1590.6653838090231
 30
0.0
 11
2009.230637565345
 21
1586.7762958090229
 31
0.0
  0
LINE
  5
1425E
  8
0
 10
2014.543221565345
 20
1588.199782809023
 30
0.0
 11
2009.230656565346
 21
1586.7762848090231
 31
0.0
  0
LINE
  5
1425F
  8
0
 10
2015.966744565344
 20
1593.5123818090231
 30
0.0
 11
2014.5432405653451
 21
1588.1997918090231
 31
0.0
  0
LINE
  5
14260
  8
0
 10
2012.0776435653449
 20
1597.4014768090231
 30
0.0
 11
2015.9667315653451
 21
1593.512389809023
 31
0.0
  0
LINE
  5
14261
  8
0
 10
2006.7650735653449
 20
1595.977976809022
 30
0.0
 11
2012.0776355653441
 21
1597.4014728090231
 31
0.0
  0
CIRCLE
  5
14262
  8
0
 10
2010.654173565345
 20
1592.088875809023
 30
0.0
 40
6.75
  0
LINE
  5
14263
  8
0
 10
2081.2432545653451
 20
1595.9779618090231
 30
0.0
 11
2079.8197505653452
 21
1590.6653738090231
 31
0.0
  0
LINE
  5
14264
  8
0
 10
2079.819735565346
 20
1590.6653838090231
 30
0.0
 11
2083.7088225653451
 21
1586.7762958090229
 31
0.0
  0
LINE
  5
14265
  8
0
 10
2089.0214065653449
 20
1588.199782809023
 30
0.0
 11
2083.7088415653461
 21
1586.7762848090231
 31
0.0
  0
LINE
  5
14266
  8
0
 10
2090.444929565344
 20
1593.5123818090231
 30
0.0
 11
2089.021425565345
 21
1588.1997918090231
 31
0.0
  0
LINE
  5
14267
  8
0
 10
2086.5558285653442
 20
1597.4014768090231
 30
0.0
 11
2090.444916565345
 21
1593.512389809023
 31
0.0
  0
LINE
  5
14268
  8
0
 10
2081.2432585653451
 20
1595.977976809022
 30
0.0
 11
2086.5558205653442
 21
1597.4014728090231
 31
0.0
  0
CIRCLE
  5
14269
  8
0
 10
2085.132357565345
 20
1592.088875809023
 30
0.0
 40
6.75
  0
LINE
  5
1426A
  8
0
 10
2044.0041625653439
 20
1660.4779618090231
 30
0.0
 11
2042.5806585653449
 21
1655.1653738090231
 31
0.0
  0
LINE
  5
1426B
  8
0
 10
2042.580643565344
 20
1655.1653838090231
 30
0.0
 11
2046.4697305653449
 21
1651.276295809022
 31
0.0
  0
LINE
  5
1426C
  8
0
 10
2051.782314565346
 20
1652.699782809023
 30
0.0
 11
2046.4697495653461
 21
1651.2762848090231
 31
0.0
  0
LINE
  5
1426D
  8
0
 10
2053.2058375653442
 20
1658.0123818090231
 30
0.0
 11
2051.7823335653452
 21
1652.6997918090231
 31
0.0
  0
LINE
  5
1426E
  8
0
 10
2049.3167365653449
 20
1661.9014768090231
 30
0.0
 11
2053.2058245653452
 21
1658.012389809023
 31
0.0
  0
LINE
  5
1426F
  8
0
 10
2044.004166565345
 20
1660.4779768090229
 30
0.0
 11
2049.316728565344
 21
1661.9014728090231
 31
0.0
  0
CIRCLE
  5
14270
  8
0
 10
2047.893265565345
 20
1656.588875809023
 30
0.0
 40
6.75
  0
LINE
  5
14271
  8
0
 10
2044.0041625653439
 20
1574.4779618090231
 30
0.0
 11
2042.5806585653449
 21
1569.1653738090231
 31
0.0
  0
LINE
  5
14272
  8
0
 10
2042.580643565344
 20
1569.1653838090231
 30
0.0
 11
2046.4697305653449
 21
1565.2762958090229
 31
0.0
  0
LINE
  5
14273
  8
0
 10
2051.782314565346
 20
1566.699782809023
 30
0.0
 11
2046.4697495653461
 21
1565.2762848090231
 31
0.0
  0
LINE
  5
14274
  8
0
 10
2053.2058375653442
 20
1572.0123818090231
 30
0.0
 11
2051.7823335653452
 21
1566.6997918090231
 31
0.0
  0
LINE
  5
14275
  8
0
 10
2049.3167365653449
 20
1575.9014768090231
 30
0.0
 11
2053.2058245653452
 21
1572.012389809023
 31
0.0
  0
LINE
  5
14276
  8
0
 10
2044.004166565345
 20
1574.4779768090229
 30
0.0
 11
2049.316728565344
 21
1575.9014728090231
 31
0.0
  0
CIRCLE
  5
14277
  8
0
 10
2047.893265565345
 20
1570.588875809023
 30
0.0
 40
6.75
  0
LINE
  5
14278
  8
0
 10
2081.2432545653451
 20
1638.9779618090231
 30
0.0
 11
2079.8197505653452
 21
1633.6653738090231
 31
0.0
  0
LINE
  5
14279
  8
0
 10
2079.819735565346
 20
1633.6653838090231
 30
0.0
 11
2083.7088225653451
 21
1629.7762958090229
 31
0.0
  0
LINE
  5
1427A
  8
0
 10
2089.0214065653449
 20
1631.199782809023
 30
0.0
 11
2083.7088415653461
 21
1629.7762848090231
 31
0.0
  0
LINE
  5
1427B
  8
0
 10
2090.444929565344
 20
1636.5123818090231
 30
0.0
 11
2089.021425565345
 21
1631.1997918090231
 31
0.0
  0
LINE
  5
1427C
  8
0
 10
2086.5558285653442
 20
1640.4014768090231
 30
0.0
 11
2090.444916565345
 21
1636.512389809023
 31
0.0
  0
LINE
  5
1427D
  8
0
 10
2081.2432585653451
 20
1638.9779768090229
 30
0.0
 11
2086.5558205653442
 21
1640.4014728090231
 31
0.0
  0
CIRCLE
  5
1427E
  8
0
 10
2085.132357565345
 20
1635.088875809023
 30
0.0
 40
6.75
  0
CIRCLE
  5
1427F
  8
0
 10
2010.654173565345
 20
1635.088875809023
 30
0.0
 40
6.75
  0
LINE
  5
14280
  8
0
 10
2006.7650735653449
 20
1638.9779768090229
 30
0.0
 11
2012.0776355653441
 21
1640.4014728090231
 31
0.0
  0
LINE
  5
14281
  8
0
 10
2014.543221565345
 20
1631.199782809023
 30
0.0
 11
2009.230656565346
 21
1629.7762848090231
 31
0.0
  0
LINE
  5
14282
  8
0
 10
2012.0776435653449
 20
1640.4014768090231
 30
0.0
 11
2015.9667315653451
 21
1636.512389809023
 31
0.0
  0
LINE
  5
14283
  8
0
 10
2015.966744565344
 20
1636.5123818090231
 30
0.0
 11
2014.5432405653451
 21
1631.1997918090231
 31
0.0
  0
LINE
  5
14284
  8
0
 10
2006.7650695653449
 20
1638.9779618090231
 30
0.0
 11
2005.341565565345
 21
1633.6653738090231
 31
0.0
  0
LINE
  5
14285
  8
0
 10
2005.341550565345
 20
1633.6653838090231
 30
0.0
 11
2009.230637565345
 21
1629.7762958090229
 31
0.0
  0
ARC
  5
14286
  8
CENTER
 10
2043.9961515653449
 20
1615.838875809023
 30
0.0
 40
38.5
 50
134.46756600002911
 51
164.19277500001701
  0
LINE
  5
14287
  8
CENTER
 10
2077.2647265653441
 20
1596.6312548090229
 30
0.0
 11
2092.808168565346
 21
1587.657244809023
 31
0.0
  0
LINE
  5
14288
  8
CENTER
 10
2018.9474115653461
 20
1596.8769788090231
 30
0.0
 11
2003.3962985653459
 21
1587.8985398090231
 31
0.0
  0
LINE
  5
14289
  8
CENTER
 10
2018.6466245653451
 20
1630.4744318090229
 30
0.0
 11
2003.1175325653439
 21
1639.4401568090229
 31
0.0
  0
LINE
  5
1428A
  8
CENTER
 10
2077.1399065653441
 20
1630.4744318090229
 30
0.0
 11
2093.1218425653451
 21
1639.7016068090229
 31
0.0
  0
LINE
  5
1428B
  8
CENTER
 10
1983.337759565344
 20
1613.588875809023
 30
0.0
 11
2112.4487715653449
 21
1613.588875809023
 31
0.0
  0
LINE
  5
1428C
  8
CENTER
 10
2047.893265565345
 20
1532.6680928090229
 30
0.0
 11
2047.893265565345
 21
1694.509658809023
 31
0.0
  0
LINE
  5
142AE
  8
HIDE
 10
2200.5083785653442
 20
1632.838875809023
 30
0.0
 11
2200.5083785653451
 21
1594.338875809023
 31
0.0
  0
ENDSEC
  0
EOF
