  0
SECTION
  2
HEADER
  9
$ACADVER
  1
AC1009
  9
$INSBASE
 10
0.0
 20
0.0
 30
0.0
  9
$EXTMIN
 10
1979.4999987878191
 20
1463.8528540716061
 30
0.0
  9
$EXTMAX
 10
2293.4289978438251
 20
1713.0
 30
0.0
  9
$LIMMIN
 10
0.0
 20
0.0
  9
$LIMMAX
 10
12.0
 20
9.0
  9
$ORTHOMODE
 70
     1
  9
$REGENMODE
 70
     1
  9
$FILLMODE
 70
     1
  9
$QTEXTMODE
 70
     0
  9
$MIRRTEXT
 70
     0
  9
$DRAGMODE
 70
     2
  9
$LTSCALE
 40
5.0
  9
$OSMODE
 70
  2239
  9
$ATTMODE
 70
     1
  9
$TEXTSIZE
 40
2.5
  9
$TRACEWID
 40
0.05
  9
$TEXTSTYLE
  7
BIG
  9
$CLAYER
  8
0
  9
$CELTYPE
  6
BYLAYER
  9
$CECOLOR
 62
   256
  9
$DIMSCALE
 40
1.0
  9
$DIMASZ
 40
3.0
  9
$DIMEXO
 40
1.0
  9
$DIMDLI
 40
0.0
  9
$DIMRND
 40
0.0
  9
$DIMDLE
 40
0.0
  9
$DIMEXE
 40
1.0
  9
$DIMTP
 40
0.0
  9
$DIMTM
 40
0.0
  9
$DIMTXT
 40
3.0
  9
$DIMCEN
 40
0.0
  9
$DIMTSZ
 40
0.0
  9
$DIMTOL
 70
     0
  9
$DIMLIM
 70
     0
  9
$DIMTIH
 70
     0
  9
$DIMTOH
 70
     0
  9
$DIMSE1
 70
     0
  9
$DIMSE2
 70
     0
  9
$DIMTAD
 70
     1
  9
$DIMZIN
 70
     8
  9
$DIMBLK
  1

  9
$DIMASO
 70
     1
  9
$DIMSHO
 70
     1
  9
$DIMPOST
  1

  9
$DIMAPOST
  1

  9
$DIMALT
 70
     0
  9
$DIMALTD
 70
     2
  9
$DIMALTF
 40
25.399999999999999
  9
$DIMLFAC
 40
1.0
  9
$DIMTOFL
 70
     1
  9
$DIMTVP
 40
0.0
  9
$DIMTIX
 70
     1
  9
$DIMSOXD
 70
     0
  9
$DIMSAH
 70
     0
  9
$DIMBLK1
  1

  9
$DIMBLK2
  1

  9
$DIMSTYLE
  2
DUKITEC
  9
$DIMCLRD
 70
     5
  9
$DIMCLRE
 70
     5
  9
$DIMCLRT
 70
     0
  9
$DIMTFAC
 40
1.0
  9
$DIMGAP
 40
1.0
  9
$LUNITS
 70
     2
  9
$LUPREC
 70
     4
  9
$SKETCHINC
 40
0.1
  9
$FILLETRAD
 40
0.2
  9
$AUNITS
 70
     0
  9
$AUPREC
 70
     0
  9
$MENU
  1
.
  9
$ELEVATION
 40
0.0
  9
$PELEVATION
 40
0.0
  9
$THICKNESS
 40
0.0
  9
$LIMCHECK
 70
     0
  9
$BLIPMODE
 70
     0
  9
$CHAMFERA
 40
0.5
  9
$CHAMFERB
 40
0.5
  9
$SKPOLY
 70
     0
  9
$TDCREATE
 40
2454396.752858426
  9
$TDUPDATE
 40
2456631.547078114
  9
$TDINDWG
 40
0.1021139699
  9
$TDUSRTIMER
 40
0.1021136227
  9
$USRTIMER
 70
     1
  9
$ANGBASE
 50
0.0
  9
$ANGDIR
 70
     0
  9
$PDMODE
 70
     0
  9
$PDSIZE
 40
0.0
  9
$PLINEWID
 40
0.0
  9
$COORDS
 70
     1
  9
$SPLFRAME
 70
     0
  9
$SPLINETYPE
 70
     6
  9
$SPLINESEGS
 70
     8
  9
$ATTDIA
 70
     0
  9
$ATTREQ
 70
     1
  9
$HANDLING
 70
     1
  9
$HANDSEED
  5
1474A
  9
$SURFTAB1
 70
     6
  9
$SURFTAB2
 70
     6
  9
$SURFTYPE
 70
     6
  9
$SURFU
 70
     6
  9
$SURFV
 70
     6
  9
$UCSNAME
  2

  9
$UCSORG
 10
0.0
 20
0.0
 30
0.0
  9
$UCSXDIR
 10
1.0
 20
0.0
 30
0.0
  9
$UCSYDIR
 10
0.0
 20
1.0
 30
0.0
  9
$PUCSNAME
  2

  9
$PUCSORG
 10
0.0
 20
0.0
 30
0.0
  9
$PUCSXDIR
 10
1.0
 20
0.0
 30
0.0
  9
$PUCSYDIR
 10
0.0
 20
1.0
 30
0.0
  9
$USERI1
 70
     0
  9
$USERI2
 70
     0
  9
$USERI3
 70
     0
  9
$USERI4
 70
     0
  9
$USERI5
 70
     0
  9
$USERR1
 40
0.0
  9
$USERR2
 40
0.0
  9
$USERR3
 40
0.0
  9
$USERR4
 40
0.0
  9
$USERR5
 40
0.0
  9
$WORLDVIEW
 70
     1
  9
$SHADEDGE
 70
     3
  9
$SHADEDIF
 70
    70
  9
$TILEMODE
 70
     1
  9
$MAXACTVP
 70
    64
  9
$PLIMCHECK
 70
     0
  9
$PEXTMIN
 10
0.0
 20
0.0
 30
0.0
  9
$PEXTMAX
 10
0.0
 20
0.0
 30
0.0
  9
$PLIMMIN
 10
0.0
 20
0.0
  9
$PLIMMAX
 10
12.0
 20
9.0
  9
$UNITMODE
 70
     0
  9
$VISRETAIN
 70
     1
  9
$PLINEGEN
 70
     0
  9
$PSLTSCALE
 70
     1
  0
ENDSEC
  0
SECTION
  2
TABLES
  0
TABLE
  2
VPORT
 70
     1
  0
VPORT
  2
*ACTIVE
 70
     0
 10
0.0
 20
0.0
 11
1.0
 21
1.0
 12
2157.0985853733532
 22
1601.3012576845219
 13
0.0
 23
0.0
 14
0.5
 24
0.5
 15
0.5
 25
0.5
 16
0.0
 26
0.0
 36
1.0
 17
0.0
 27
0.0
 37
0.0
 40
334.30026787075872
 41
2.1408934707903771
 42
50.0
 43
0.0
 44
0.0
 50
0.0
 51
0.0
 71
     0
 72
  2000
 73
     1
 74
     3
 75
     1
 76
     0
 77
     0
 78
     0
  0
ENDTAB
  0
TABLE
  2
LTYPE
 70
     4
  0
LTYPE
  2
CONTINUOUS
 70
     0
  3
Solid line
 72
    65
 73
     0
 40
0.0
  0
LTYPE
  2
PHANTOM2
 70
     0
  3
Phantom (.5x) ___ _ _ ___ _ _ ___ _ _ ___ _ _
 72
    65
 73
     6
 40
1.25
 49
0.625
 49
-0.125
 49
0.125
 49
-0.125
 49
0.125
 49
-0.125
  0
LTYPE
  2
CENTER
 70
     0
  3
___ _ ___ _ ___ _ ___ _ ___ _ ___ _ ___ _ ___ _
 72
    65
 73
     4
 40
0.95
 49
0.625
 49
-0.125
 49
0.075
 49
-0.125
  0
LTYPE
  2
DASHED2
 70
     0
  3
Dashed (.5x) _ _ _ _ _ _ _ _ _ _ _ _ _ _ _ _ _
 72
    65
 73
     2
 40
0.375
 49
0.25
 49
-0.125
  0
ENDTAB
  0
TABLE
  2
LAYER
 70
     4
  0
LAYER
  2
0
 70
     0
 62
     7
  6
CONTINUOUS
  0
LAYER
  2
HIDE
 70
     0
 62
     1
  6
DASHED2
  0
LAYER
  2
CENTER
 70
     0
 62
     3
  6
CENTER
  0
ENDTAB
  0
TABLE
  2
STYLE
 70
     3
  0
STYLE
  2
STANDARD
 70
     0
 40
5.0
 41
1.0
 50
0.0
 71
     0
 42
5.0
  3
txt.shx
  4
whgtxt.shx
  0
STYLE
  2
BIG
 70
     0
 40
20.0
 41
1.0
 50
0.0
 71
     0
 42
2.5
  3
txt
  4

  0
ENDTAB
  0
TABLE
  2
VIEW
 70
     0
  0
ENDTAB
  0
TABLE
  2
UCS
 70
     0
  0
ENDTAB
  0
TABLE
  2
APPID
 70
    10
  0
APPID
  2
ACAD
 70
     0
  0
APPID
  2
ACADANNOTATIVE
 70
     0
  0
APPID
  2
ACAD_EXEMPT_FROM_CAD_STANDARDS
 70
     0
  0
APPID
  2
ACAD_DSTYLE_DIMJOGGED_JOGA
 70
     0
  0
APPID
  2
ACAD_PSEXT
 70
     0
  0
APPID
  2
ACAECLAYERSTANDARD
 70
     0
  0
APPID
  2
DCO15
 70
     0
  0
APPID
  2
CONTENTBLOCKICON
 70
     0
  0
APPID
  2
ACAD_NAV_VCDISPLAY
 70
     0
  0
APPID
  2
ACAD_MLEADERVER
 70
     0
  0
ENDTAB
  0
TABLE
  2
DIMSTYLE
 70
     3
  0
DIMSTYLE
  2
DUKITEC
 70
     0
  3

  4

  5

  6

  7

 40
1.0
 41
3.0
 42
1.0
 43
0.0
 44
1.0
 45
0.0
 46
0.0
 47
0.0
 48
0.0
140
3.0
141
0.0
142
0.0
143
25.399999999999999
144
1.0
145
0.0
146
1.0
147
1.0
 71
     0
 72
     0
 73
     0
 74
     0
 75
     0
 76
     0
 77
     1
 78
     8
170
     0
171
     2
172
     1
173
     0
174
     1
175
     0
176
     5
177
     5
178
     0
  0
ENDTAB
  0
ENDSEC
  0
SECTION
  2
BLOCKS
  0
BLOCK
  8
0
  2
$MODEL_SPACE
 70
     0
 10
0.0
 20
0.0
 30
0.0
  3
$MODEL_SPACE
  1

  0
ENDBLK
  5
143B4
  8
0
  0
BLOCK
 67
     1
  8
0
  2
$PAPER_SPACE
 70
     0
 10
0.0
 20
0.0
 30
0.0
  3
$PAPER_SPACE
  1

  0
ENDBLK
  5
143B0
 67
     1
  8
0
  0
ENDSEC
  0
SECTION
  2
ENTITIES
  0
TEXT
  5
14064
  8
0
 10
2062.8756865743198
 20
1463.8528540716061
 30
0.0
 40
20.0
  1
FK 35DFF
  7
BIG
  0
LINE
  5
14120
  8
CENTER
 10
2200.25649840095
 20
1543.8917995679799
 30
0.0
 11
2227.9068237785468
 21
1543.8917995679799
 31
0.0
  0
LINE
  5
14121
  8
HIDE
 10
2205.1706177878191
 20
1535.141799006105
 30
0.0
 11
2216.1706177878191
 21
1535.141799006105
 31
0.0
  0
LINE
  5
14122
  8
HIDE
 10
2216.1706177878191
 20
1538.391799006105
 30
0.0
 11
2223.1706177878191
 21
1538.391799006105
 31
0.0
  0
LINE
  5
14123
  8
HIDE
 10
2216.1706177878191
 20
1549.391799006105
 30
0.0
 11
2223.1706177878191
 21
1549.391799006105
 31
0.0
  0
LINE
  5
14124
  8
HIDE
 10
2205.1706177878191
 20
1552.641799006105
 30
0.0
 11
2216.1706177878191
 21
1552.641799006105
 31
0.0
  0
LINE
  5
14125
  8
HIDE
 10
2216.1706177878191
 20
1535.141799006105
 30
0.0
 11
2216.1706177878191
 21
1552.641799006105
 31
0.0
  0
LINE
  5
14126
  8
HIDE
 10
2216.1706177878191
 20
1680.1440090061051
 30
0.0
 11
2216.1706177878191
 21
1662.6440090061051
 31
0.0
  0
LINE
  5
14127
  8
HIDE
 10
2205.1706177878191
 20
1662.6440090061051
 30
0.0
 11
2216.1706177878191
 21
1662.6440090061051
 31
0.0
  0
LINE
  5
14128
  8
HIDE
 10
2216.1706177878191
 20
1665.8940090061051
 30
0.0
 11
2223.1706177878191
 21
1665.8940090061051
 31
0.0
  0
LINE
  5
14129
  8
HIDE
 10
2216.1706177878191
 20
1676.8940090061051
 30
0.0
 11
2223.1706177878191
 21
1676.8940090061051
 31
0.0
  0
LINE
  5
1412A
  8
HIDE
 10
2205.1706177878191
 20
1680.1440090061051
 30
0.0
 11
2216.1706177878191
 21
1680.1440090061051
 31
0.0
  0
LINE
  5
1412B
  8
CENTER
 10
2200.25649840095
 20
1671.394008444229
 30
0.0
 11
2227.9068237785468
 21
1671.394008444229
 31
0.0
  0
LINE
  5
1412C
  8
0
 10
2191.1706177878191
 20
1551.642904006105
 30
0.0
 11
2205.1706177878191
 21
1551.642904006105
 31
0.0
  0
LINE
  5
1412D
  8
0
 10
2223.1706177878191
 20
1530.642904006105
 30
0.0
 11
2205.1706177878191
 21
1530.642904006105
 31
0.0
  0
LINE
  5
1412E
  8
0
 10
2205.1706177878191
 20
1684.642904006105
 30
0.0
 11
2223.1706177878191
 21
1684.642904006105
 31
0.0
  0
LINE
  5
1412F
  8
0
 10
2191.1706177878191
 20
1663.642904006105
 30
0.0
 11
2205.1706177878191
 21
1663.642904006105
 31
0.0
  0
LINE
  5
14130
  8
0
 10
2289.1706177878191
 20
1657.642904006105
 30
0.0
 11
2223.1706177878191
 21
1657.642904006105
 31
0.0
  0
LINE
  5
14131
  8
0
 10
2289.1706177878191
 20
1557.642904006105
 30
0.0
 11
2223.1706177878191
 21
1557.642904006105
 31
0.0
  0
LINE
  5
14132
  8
0
 10
2289.1706177878191
 20
1657.642904006105
 30
0.0
 11
2289.1706177878191
 21
1557.642904006105
 31
0.0
  0
LINE
  5
14133
  8
0
 10
2223.1706177878191
 20
1684.642904006105
 30
0.0
 11
2223.1706177878191
 21
1657.642904006105
 31
0.0
  0
LINE
  5
14134
  8
0
 10
2205.1706177878191
 20
1684.642904006105
 30
0.0
 11
2205.1706177878191
 21
1530.642904006105
 31
0.0
  0
LINE
  5
14135
  8
0
 10
2191.1706177878191
 20
1663.642904006105
 30
0.0
 11
2191.1706177878191
 21
1551.642904006105
 31
0.0
  0
LINE
  5
14136
  8
CENTER
 10
2174.003744258353
 20
1607.642904006105
 30
0.0
 11
2293.4289978438251
 21
1607.642904006105
 31
0.0
  0
CIRCLE
  5
14137
  8
HIDE
 10
2251.6706177878191
 20
1580.892904006105
 30
0.0
 40
5.549999999999998
  0
CIRCLE
  5
14138
  8
HIDE
 10
2251.6706177878191
 20
1634.392904006105
 30
0.0
 40
5.549999999999998
  0
CIRCLE
  5
14139
  8
HIDE
 10
2234.6706177878191
 20
1580.892904006105
 30
0.0
 40
5.549999999999998
  0
CIRCLE
  5
1413A
  8
HIDE
 10
2234.6706177878191
 20
1634.392904006105
 30
0.0
 40
5.549999999999998
  0
ARC
  5
1413B
  8
HIDE
 10
2242.5706177878192
 20
1643.042904006104
 30
0.0
 40
0.6000000000000015
 50
0.0
 51
90.0
  0
ARC
  5
1413C
  8
HIDE
 10
2227.2706177878181
 20
1642.5429040061049
 30
0.0
 40
1.1000000000000001
 50
90.0
 51
180.0
  0
ARC
  5
1413D
  8
HIDE
 10
2242.0706177878192
 20
1626.2429040061049
 30
0.0
 40
1.1000000000000001
 50
270.0
 51
0.0
  0
ARC
  5
1413E
  8
HIDE
 10
2242.0706177878192
 20
1589.042904006104
 30
0.0
 40
1.1000000000000001
 50
0.0
 51
90.0
  0
ARC
  5
1413F
  8
HIDE
 10
2226.7706177878181
 20
1625.7429040061049
 30
0.0
 40
0.6000000000000015
 50
180.0
 51
270.0
  0
ARC
  5
14140
  8
HIDE
 10
2226.7706177878181
 20
1589.5429040061049
 30
0.0
 40
0.6000000000000015
 50
90.0
 51
180.0
  0
ARC
  5
14141
  8
HIDE
 10
2242.5706177878192
 20
1572.242904006104
 30
0.0
 40
0.6000000000000015
 50
270.0
 51
0.0
  0
ARC
  5
14142
  8
HIDE
 10
2227.2706177878181
 20
1572.742904006104
 30
0.0
 40
1.1000000000000001
 50
180.0
 51
270.0
  0
LINE
  5
14143
  8
HIDE
 10
2226.1706177878191
 20
1636.792904006104
 30
0.0
 11
2229.6663695925349
 21
1636.792904006104
 31
0.0
  0
LINE
  5
14144
  8
HIDE
 10
2227.2706177878181
 20
1643.642904006105
 30
0.0
 11
2242.5706177878192
 21
1643.642904006105
 31
0.0
  0
LINE
  5
14145
  8
HIDE
 10
2243.1706177878191
 20
1631.9929040061049
 30
0.0
 11
2239.6748659831028
 21
1631.9929040061049
 31
0.0
  0
LINE
  5
14146
  8
HIDE
 10
2236.6311108023592
 20
1639.585106538744
 30
0.0
 11
2243.1706177878191
 21
1640.2429040061049
 31
0.0
  0
LINE
  5
14147
  8
HIDE
 10
2226.1706177878191
 20
1631.9929040061049
 30
0.0
 11
2229.6663695925349
 21
1631.9929040061049
 31
0.0
  0
LINE
  5
14148
  8
HIDE
 10
2226.1706177878191
 20
1583.292904006104
 30
0.0
 11
2229.6663695925349
 21
1583.292904006104
 31
0.0
  0
LINE
  5
14149
  8
HIDE
 10
2226.7706177878181
 20
1625.142904006105
 30
0.0
 11
2242.0706177878192
 21
1625.142904006105
 31
0.0
  0
LINE
  5
1414A
  8
HIDE
 10
2226.7706177878181
 20
1590.142904006105
 30
0.0
 11
2242.0706177878192
 21
1590.142904006105
 31
0.0
  0
LINE
  5
1414B
  8
HIDE
 10
2243.1706177878191
 20
1583.292904006104
 30
0.0
 11
2239.6748659831028
 21
1583.292904006104
 31
0.0
  0
LINE
  5
1414C
  8
HIDE
 10
2226.1706177878191
 20
1578.4929040061049
 30
0.0
 11
2229.6663695925349
 21
1578.4929040061049
 31
0.0
  0
LINE
  5
1414D
  8
HIDE
 10
2242.5706177878192
 20
1571.642904006105
 30
0.0
 11
2227.2706177878181
 21
1571.642904006105
 31
0.0
  0
LINE
  5
1414E
  8
HIDE
 10
2236.6311108023592
 20
1575.700701473467
 30
0.0
 11
2243.1706177878191
 21
1575.042904006104
 31
0.0
  0
LINE
  5
1414F
  8
HIDE
 10
2226.1706177878191
 20
1572.742904006104
 30
0.0
 11
2226.1706177878191
 21
1642.5429040061049
 31
0.0
  0
LINE
  5
14150
  8
HIDE
 10
2243.1706177878191
 20
1643.042904006104
 30
0.0
 11
2243.1706177878191
 21
1572.242904006104
 31
0.0
  0
ARC
  5
14151
  8
HIDE
 10
2243.7706177878181
 20
1572.242904006104
 30
0.0
 40
0.6000000000000015
 50
180.0
 51
270.0
  0
ARC
  5
14152
  8
HIDE
 10
2259.0706177878192
 20
1572.742904006104
 30
0.0
 40
1.1000000000000001
 50
270.0
 51
0.0
  0
ARC
  5
14153
  8
HIDE
 10
2244.2706177878181
 20
1589.042904006104
 30
0.0
 40
1.1000000000000001
 50
90.0
 51
180.0
  0
ARC
  5
14154
  8
HIDE
 10
2244.270617787819
 20
1626.2429040061049
 30
0.0
 40
1.0999999999999981
 50
180.0
 51
270.0
  0
ARC
  5
14155
  8
HIDE
 10
2259.5706177878192
 20
1589.5429040061049
 30
0.0
 40
0.6
 50
0.0
 51
90.0
  0
ARC
  5
14156
  8
HIDE
 10
2259.5706177878192
 20
1625.7429040061049
 30
0.0
 40
0.6000000000000015
 50
270.0
 51
0.0
  0
ARC
  5
14157
  8
HIDE
 10
2243.7706177878199
 20
1643.042904006106
 30
0.0
 40
0.6000000000000015
 50
90.0
 51
180.0
  0
ARC
  5
14158
  8
HIDE
 10
2259.0706177878192
 20
1642.5429040061049
 30
0.0
 40
1.1000000000000001
 50
0.0
 51
90.0
  0
LINE
  5
14159
  8
HIDE
 10
2260.1706177878191
 20
1578.4929040061049
 30
0.0
 11
2256.6748659831028
 21
1578.4929040061049
 31
0.0
  0
LINE
  5
1415A
  8
HIDE
 10
2259.0706177878192
 20
1571.642904006105
 30
0.0
 11
2243.7706177878181
 21
1571.642904006105
 31
0.0
  0
LINE
  5
1415B
  8
HIDE
 10
2243.1706177878191
 20
1583.292904006104
 30
0.0
 11
2246.6663695925349
 21
1583.292904006104
 31
0.0
  0
LINE
  5
1415C
  8
HIDE
 10
2249.7101247732799
 20
1575.700701473467
 30
0.0
 11
2243.1706177878191
 21
1575.042904006104
 31
0.0
  0
LINE
  5
1415D
  8
HIDE
 10
2260.1706177878191
 20
1583.292904006104
 30
0.0
 11
2256.6748659831028
 21
1583.292904006104
 31
0.0
  0
LINE
  5
1415E
  8
HIDE
 10
2260.1706177878191
 20
1631.9929040061049
 30
0.0
 11
2256.6748659831028
 21
1631.9929040061049
 31
0.0
  0
LINE
  5
1415F
  8
HIDE
 10
2259.5706177878192
 20
1590.142904006105
 30
0.0
 11
2244.2706177878181
 21
1590.142904006105
 31
0.0
  0
LINE
  5
14160
  8
HIDE
 10
2259.5706177878192
 20
1625.142904006105
 30
0.0
 11
2244.270617787819
 21
1625.142904006105
 31
0.0
  0
LINE
  5
14161
  8
HIDE
 10
2243.1706177878191
 20
1631.9929040061049
 30
0.0
 11
2246.6663695925349
 21
1631.9929040061049
 31
0.0
  0
LINE
  5
14162
  8
HIDE
 10
2260.1706177878191
 20
1636.792904006104
 30
0.0
 11
2256.6748659831028
 21
1636.792904006104
 31
0.0
  0
LINE
  5
14163
  8
HIDE
 10
2243.7706177878199
 20
1643.642904006105
 30
0.0
 11
2259.070617787821
 21
1643.642904006105
 31
0.0
  0
LINE
  5
14164
  8
HIDE
 10
2249.7101247732799
 20
1639.585106538744
 30
0.0
 11
2243.1706177878191
 21
1640.2429040061049
 31
0.0
  0
LINE
  5
14165
  8
HIDE
 10
2260.1706177878191
 20
1642.5429040061049
 30
0.0
 11
2260.1706177878191
 21
1572.742904006104
 31
0.0
  0
CIRCLE
  5
14166
  8
HIDE
 10
2268.6706177878191
 20
1580.892904006105
 30
0.0
 40
5.549999999999998
  0
CIRCLE
  5
14167
  8
HIDE
 10
2268.6706177878191
 20
1634.392904006105
 30
0.0
 40
5.549999999999998
  0
LINE
  5
14168
  8
HIDE
 10
2260.1706177878191
 20
1643.042904006104
 30
0.0
 11
2260.1706177878191
 21
1572.242904006104
 31
0.0
  0
ARC
  5
14169
  8
HIDE
 10
2260.7706177878181
 20
1572.242904006104
 30
0.0
 40
0.6000000000000015
 50
180.0
 51
270.0
  0
ARC
  5
1416A
  8
HIDE
 10
2276.0706177878192
 20
1572.742904006104
 30
0.0
 40
1.1000000000000001
 50
270.0
 51
0.0
  0
ARC
  5
1416B
  8
HIDE
 10
2261.2706177878181
 20
1589.042904006104
 30
0.0
 40
1.1000000000000001
 50
90.0
 51
180.0
  0
ARC
  5
1416C
  8
HIDE
 10
2261.2706177878208
 20
1626.2429040061049
 30
0.0
 40
1.0999999999999981
 50
180.0
 51
270.0
  0
ARC
  5
1416D
  8
HIDE
 10
2276.5706177878192
 20
1589.5429040061049
 30
0.0
 40
0.6
 50
0.0
 51
90.0
  0
ARC
  5
1416E
  8
HIDE
 10
2276.5706177878192
 20
1625.7429040061049
 30
0.0
 40
0.6000000000000015
 50
270.0
 51
0.0
  0
ARC
  5
1416F
  8
HIDE
 10
2260.770617787819
 20
1643.042904006106
 30
0.0
 40
0.6000000000000015
 50
90.0
 51
180.0
  0
ARC
  5
14170
  8
HIDE
 10
2276.0706177878192
 20
1642.5429040061049
 30
0.0
 40
1.1000000000000001
 50
0.0
 51
90.0
  0
LINE
  5
14171
  8
HIDE
 10
2277.1706177878191
 20
1578.4929040061049
 30
0.0
 11
2273.6748659831028
 21
1578.4929040061049
 31
0.0
  0
LINE
  5
14172
  8
HIDE
 10
2276.0706177878192
 20
1571.642904006105
 30
0.0
 11
2260.7706177878181
 21
1571.642904006105
 31
0.0
  0
LINE
  5
14173
  8
HIDE
 10
2260.1706177878191
 20
1583.292904006104
 30
0.0
 11
2263.6663695925349
 21
1583.292904006104
 31
0.0
  0
LINE
  5
14174
  8
HIDE
 10
2266.7101247732789
 20
1575.700701473467
 30
0.0
 11
2260.1706177878191
 21
1575.042904006104
 31
0.0
  0
LINE
  5
14175
  8
HIDE
 10
2277.1706177878191
 20
1583.292904006104
 30
0.0
 11
2273.6748659831028
 21
1583.292904006104
 31
0.0
  0
LINE
  5
14176
  8
HIDE
 10
2277.1706177878191
 20
1631.9929040061049
 30
0.0
 11
2273.6748659831028
 21
1631.9929040061049
 31
0.0
  0
LINE
  5
14177
  8
HIDE
 10
2276.5706177878192
 20
1590.142904006105
 30
0.0
 11
2261.2706177878181
 21
1590.142904006105
 31
0.0
  0
LINE
  5
14178
  8
HIDE
 10
2276.5706177878192
 20
1625.142904006105
 30
0.0
 11
2261.2706177878208
 21
1625.142904006105
 31
0.0
  0
LINE
  5
14179
  8
HIDE
 10
2260.1706177878191
 20
1631.9929040061049
 30
0.0
 11
2263.6663695925349
 21
1631.9929040061049
 31
0.0
  0
LINE
  5
1417A
  8
HIDE
 10
2277.1706177878191
 20
1636.792904006104
 30
0.0
 11
2273.6748659831028
 21
1636.792904006104
 31
0.0
  0
LINE
  5
1417B
  8
HIDE
 10
2260.770617787819
 20
1643.642904006105
 30
0.0
 11
2276.070617787821
 21
1643.642904006105
 31
0.0
  0
LINE
  5
1417C
  8
HIDE
 10
2266.7101247732789
 20
1639.585106538744
 30
0.0
 11
2260.1706177878191
 21
1640.2429040061049
 31
0.0
  0
LINE
  5
1417D
  8
HIDE
 10
2277.1706177878191
 20
1642.5429040061049
 30
0.0
 11
2277.1706177878191
 21
1572.742904006104
 31
0.0
  0
LINE
  5
1417E
  8
HIDE
 10
2277.1706177878191
 20
1625.142904006105
 30
0.0
 11
2289.1706177878191
 21
1625.142904006105
 31
0.0
  0
LINE
  5
1417F
  8
HIDE
 10
2277.1706177878191
 20
1627.642904006105
 30
0.0
 11
2289.1706177878191
 21
1627.642904006105
 31
0.0
  0
LINE
  5
14180
  8
HIDE
 10
2277.1706177878191
 20
1590.142904006105
 30
0.0
 11
2289.1706177878191
 21
1590.142904006105
 31
0.0
  0
LINE
  5
14181
  8
HIDE
 10
2277.1706177878191
 20
1587.642904006105
 30
0.0
 11
2289.1706177878191
 21
1587.642904006105
 31
0.0
  0
LINE
  5
14182
  8
HIDE
 10
2197.1706177878191
 20
1590.142904006105
 30
0.0
 11
2209.1706177878191
 21
1590.142904006105
 31
0.0
  0
LINE
  5
14183
  8
HIDE
 10
2197.1706177878191
 20
1587.642904006105
 30
0.0
 11
2209.1706177878191
 21
1587.642904006105
 31
0.0
  0
LINE
  5
14184
  8
HIDE
 10
2197.1706177878191
 20
1625.142904006105
 30
0.0
 11
2209.1706177878191
 21
1625.142904006105
 31
0.0
  0
LINE
  5
14185
  8
HIDE
 10
2197.1706177878191
 20
1627.642904006105
 30
0.0
 11
2209.1706177878191
 21
1627.642904006105
 31
0.0
  0
CIRCLE
  5
14186
  8
HIDE
 10
2217.6706177878191
 20
1580.892904006105
 30
0.0
 40
5.549999999999998
  0
CIRCLE
  5
14187
  8
HIDE
 10
2217.6706177878191
 20
1634.392904006105
 30
0.0
 40
5.549999999999998
  0
ARC
  5
14188
  8
HIDE
 10
2225.5706177878192
 20
1643.042904006104
 30
0.0
 40
0.6000000000000015
 50
0.0
 51
90.0
  0
ARC
  5
14189
  8
HIDE
 10
2210.2706177878181
 20
1642.5429040061049
 30
0.0
 40
1.1000000000000001
 50
90.0
 51
180.0
  0
ARC
  5
1418A
  8
HIDE
 10
2225.0706177878192
 20
1626.2429040061049
 30
0.0
 40
1.1000000000000001
 50
270.0
 51
0.0
  0
ARC
  5
1418B
  8
HIDE
 10
2225.0706177878192
 20
1589.042904006104
 30
0.0
 40
1.1000000000000001
 50
0.0
 51
90.0
  0
ARC
  5
1418C
  8
HIDE
 10
2209.7706177878181
 20
1625.7429040061049
 30
0.0
 40
0.6000000000000015
 50
180.0
 51
270.0
  0
ARC
  5
1418D
  8
HIDE
 10
2209.7706177878181
 20
1589.5429040061049
 30
0.0
 40
0.6000000000000015
 50
90.0
 51
180.0
  0
ARC
  5
1418E
  8
HIDE
 10
2225.5706177878192
 20
1572.242904006104
 30
0.0
 40
0.6000000000000015
 50
270.0
 51
0.0
  0
ARC
  5
1418F
  8
HIDE
 10
2210.2706177878181
 20
1572.742904006104
 30
0.0
 40
1.1000000000000001
 50
180.0
 51
270.0
  0
LINE
  5
14190
  8
HIDE
 10
2209.1706177878191
 20
1636.792904006104
 30
0.0
 11
2212.6663695925349
 21
1636.792904006104
 31
0.0
  0
LINE
  5
14191
  8
HIDE
 10
2210.2706177878181
 20
1643.642904006105
 30
0.0
 11
2225.5706177878192
 21
1643.642904006105
 31
0.0
  0
LINE
  5
14192
  8
HIDE
 10
2226.1706177878191
 20
1631.9929040061049
 30
0.0
 11
2222.6748659831028
 21
1631.9929040061049
 31
0.0
  0
LINE
  5
14193
  8
HIDE
 10
2219.6311108023592
 20
1639.585106538744
 30
0.0
 11
2226.1706177878191
 21
1640.2429040061049
 31
0.0
  0
LINE
  5
14194
  8
HIDE
 10
2209.1706177878191
 20
1631.9929040061049
 30
0.0
 11
2212.6663695925349
 21
1631.9929040061049
 31
0.0
  0
LINE
  5
14195
  8
HIDE
 10
2209.1706177878191
 20
1583.292904006104
 30
0.0
 11
2212.6663695925349
 21
1583.292904006104
 31
0.0
  0
LINE
  5
14196
  8
HIDE
 10
2209.7706177878181
 20
1625.142904006105
 30
0.0
 11
2225.0706177878192
 21
1625.142904006105
 31
0.0
  0
LINE
  5
14197
  8
HIDE
 10
2209.7706177878181
 20
1590.142904006105
 30
0.0
 11
2225.0706177878192
 21
1590.142904006105
 31
0.0
  0
LINE
  5
14198
  8
HIDE
 10
2226.1706177878191
 20
1583.292904006104
 30
0.0
 11
2222.6748659831028
 21
1583.292904006104
 31
0.0
  0
LINE
  5
14199
  8
HIDE
 10
2209.1706177878191
 20
1578.4929040061049
 30
0.0
 11
2212.6663695925349
 21
1578.4929040061049
 31
0.0
  0
LINE
  5
1419A
  8
HIDE
 10
2225.5706177878192
 20
1571.642904006105
 30
0.0
 11
2210.2706177878181
 21
1571.642904006105
 31
0.0
  0
LINE
  5
1419B
  8
HIDE
 10
2219.6311108023592
 20
1575.700701473467
 30
0.0
 11
2226.1706177878191
 21
1575.042904006104
 31
0.0
  0
LINE
  5
1419C
  8
HIDE
 10
2209.1706177878191
 20
1572.742904006104
 30
0.0
 11
2209.1706177878191
 21
1642.5429040061049
 31
0.0
  0
LINE
  5
1419D
  8
HIDE
 10
2226.1706177878191
 20
1643.042904006104
 30
0.0
 11
2226.1706177878191
 21
1572.242904006104
 31
0.0
  0
LINE
  5
1419E
  8
0
 10
2223.1706177878191
 20
1557.642904006105
 30
0.0
 11
2223.1706177878191
 21
1530.642904006105
 31
0.0
  0
CIRCLE
  5
141D4
  8
0
 10
2044.0555047878199
 20
1607.642904006105
 30
0.0
 40
31.0
  0
CIRCLE
  5
141D5
  8
0
 10
2044.0555047878199
 20
1607.642904006105
 30
0.0
 40
56.0
  0
ARC
  5
141D6
  8
CENTER
 10
2044.0555047878199
 20
1607.642904006105
 30
0.0
 40
66.0
 50
94.958778000026356
 51
114.427138999973
  0
ARC
  5
141D7
  8
CENTER
 10
2044.0555047878199
 20
1607.642904006105
 30
0.0
 40
66.0
 50
65.081980999999416
 51
84.472879000008376
  0
ARC
  5
141D8
  8
CENTER
 10
2044.0555047878199
 20
1607.642904006105
 30
0.0
 40
66.0
 50
35.376434999978471
 51
54.778217000021442
  0
ARC
  5
141D9
  8
CENTER
 10
2044.0555047878199
 20
1607.642904006105
 30
0.0
 40
66.0
 50
305.19538400000238
 51
324.4071390000359
  0
ARC
  5
141DA
  8
CENTER
 10
2044.0555047878199
 20
1607.642904006105
 30
0.0
 40
66.0
 50
274.8819159999897
 51
295.58237499997892
  0
ARC
  5
141DB
  8
CENTER
 10
2044.0555047878199
 20
1607.642904006105
 30
0.0
 40
66.0
 50
244.92369700001049
 51
265.37592599998828
  0
ARC
  5
141DC
  8
CENTER
 10
2044.0555047878199
 20
1607.642904006105
 30
0.0
 40
66.0
 50
215.09290700002151
 51
234.56785100000229
  0
CIRCLE
  5
141DD
  8
0
 10
2090.7245527878199
 20
1560.9738560061051
 30
0.0
 40
5.5
  0
CIRCLE
  5
141DE
  8
0
 10
2090.7245527878199
 20
1560.9738560061051
 30
0.0
 40
8.75
  0
CIRCLE
  5
141DF
  8
0
 10
2061.1375617878198
 20
1543.891799006105
 30
0.0
 40
5.5
  0
CIRCLE
  5
141E0
  8
0
 10
2061.1375617878198
 20
1543.891799006105
 30
0.0
 40
8.75
  0
CIRCLE
  5
141E1
  8
0
 10
2026.9734477878201
 20
1543.891799006105
 30
0.0
 40
5.5
  0
CIRCLE
  5
141E2
  8
0
 10
2026.9734477878201
 20
1543.891799006105
 30
0.0
 40
8.75
  0
CIRCLE
  5
141E3
  8
0
 10
1997.38645678782
 20
1560.9738560061051
 30
0.0
 40
5.5
  0
CIRCLE
  5
141E4
  8
0
 10
1997.38645678782
 20
1560.9738560061051
 30
0.0
 40
8.75
  0
CIRCLE
  5
141E5
  8
0
 10
1997.38645678782
 20
1654.311952006105
 30
0.0
 40
5.5
  0
CIRCLE
  5
141E6
  8
0
 10
1997.38645678782
 20
1654.311952006105
 30
0.0
 40
8.75
  0
CIRCLE
  5
141E7
  8
0
 10
2026.9734477878201
 20
1671.3940090061051
 30
0.0
 40
5.5
  0
CIRCLE
  5
141E8
  8
0
 10
2026.9734477878201
 20
1671.3940090061051
 30
0.0
 40
8.75
  0
CIRCLE
  5
141E9
  8
0
 10
2061.1375617878198
 20
1671.3940090061051
 30
0.0
 40
5.5
  0
CIRCLE
  5
141EA
  8
0
 10
2061.1375617878198
 20
1671.3940090061051
 30
0.0
 40
8.75
  0
CIRCLE
  5
141EB
  8
0
 10
2090.7245527878199
 20
1654.311952006105
 30
0.0
 40
8.75
  0
CIRCLE
  5
141EC
  8
0
 10
2090.7245527878199
 20
1654.311952006105
 30
0.0
 40
5.5
  0
LINE
  5
141ED
  8
CENTER
 10
2029.8626077878189
 20
1554.6742920061049
 30
0.0
 11
2023.48211978782
 21
1530.861985006105
 31
0.0
  0
LINE
  5
141EE
  8
CENTER
 10
2005.5128887878211
 20
1569.1002880061051
 30
0.0
 11
1987.918859787821
 21
1551.506259006105
 31
0.0
  0
LINE
  5
141EF
  8
CENTER
 10
2058.0961607878212
 20
1555.2424620061049
 30
0.0
 11
2064.541004787819
 21
1531.1899780061051
 31
0.0
  0
LINE
  5
141F0
  8
CENTER
 10
2082.6580897878212
 20
1569.0403190061049
 30
0.0
 11
2100.2515777878189
 21
1551.446831006105
 31
0.0
  0
LINE
  5
141F1
  8
CENTER
 10
2082.5738737878219
 20
1646.1612730061049
 30
0.0
 11
2100.3437737878212
 21
1663.931173006104
 31
0.0
  0
LINE
  5
141F2
  8
CENTER
 10
2058.15938678782
 20
1660.279307006105
 30
0.0
 11
2064.5226807878198
 21
1684.0274430061049
 31
0.0
  0
LINE
  5
141F3
  8
CENTER
 10
2005.5371357878189
 20
1646.1612730061049
 30
0.0
 11
1988.47099078782
 21
1663.227418006104
 31
0.0
  0
LINE
  5
141F4
  8
CENTER
 10
2030.0159777878191
 20
1660.0391300061051
 30
0.0
 11
2023.2773617878211
 21
1685.187991006105
 31
0.0
  0
ARC
  5
141F5
  8
CENTER
 10
2044.0555047878199
 20
1607.642904006105
 30
0.0
 40
66.0
 50
125.1054809999989
 51
145.01828300001009
  0
ARC
  5
141F6
  8
0
 10
2044.0555047878199
 20
1607.642904006105
 30
0.0
 40
77.0
 50
38.81071399996403
 51
141.18928600003591
  0
ARC
  5
141F7
  8
0
 10
2044.0555047878199
 20
1607.642904006105
 30
0.0
 40
77.0
 50
218.81071399996401
 51
321.18928600003602
  0
LINE
  5
141F8
  8
0
 10
1984.0555047878199
 20
1655.9026180061051
 30
0.0
 11
1984.0555047878199
 21
1559.383190006105
 31
0.0
  0
LINE
  5
141F9
  8
0
 10
2104.0555047878202
 20
1655.9026180061051
 30
0.0
 11
2104.0555047878202
 21
1559.383190006105
 31
0.0
  0
ARC
  5
141FA
  8
CENTER
 10
2044.0555047878199
 20
1612.142904006105
 30
0.0
 40
38.5
 50
77.051749999985873
 51
104.7728919999728
  0
ARC
  5
141FB
  8
CENTER
 10
2047.95261878782
 20
1609.892904006105
 30
0.0
 40
38.5
 50
16.465443000008651
 51
43.632459000005021
  0
ARC
  5
141FC
  8
CENTER
 10
2047.95261878782
 20
1605.392904006105
 30
0.0
 40
38.5
 50
315.9667890000336
 51
344.66874700000398
  0
ARC
  5
141FD
  8
CENTER
 10
2044.0555047878199
 20
1603.142904006105
 30
0.0
 40
38.5
 50
255.63859500002229
 51
283.58521200001547
  0
ARC
  5
141FE
  8
CENTER
 10
2040.158390787821
 20
1605.392904006105
 30
0.0
 40
38.5
 50
195.69859699998241
 51
223.28990200000871
  0
LINE
  5
141FF
  8
0
 10
2002.9273087878209
 20
1590.0319900061049
 30
0.0
 11
2001.5038047878199
 21
1584.7194020061049
 31
0.0
  0
LINE
  5
14200
  8
0
 10
2001.5037897878201
 20
1584.719412006104
 30
0.0
 11
2005.3928767878199
 21
1580.830324006105
 31
0.0
  0
LINE
  5
14201
  8
0
 10
2010.705460787821
 20
1582.253811006105
 30
0.0
 11
2005.3928957878211
 21
1580.8303130061049
 31
0.0
  0
LINE
  5
14202
  8
0
 10
2012.1289837878189
 20
1587.566410006104
 30
0.0
 11
2010.7054797878211
 21
1582.253820006104
 31
0.0
  0
LINE
  5
14203
  8
0
 10
2008.2398827878201
 20
1591.4555050061051
 30
0.0
 11
2012.12897078782
 21
1587.5664180061051
 31
0.0
  0
LINE
  5
14204
  8
0
 10
2002.92731278782
 20
1590.032005006105
 30
0.0
 11
2008.239874787819
 21
1591.4555010061049
 31
0.0
  0
CIRCLE
  5
14205
  8
0
 10
2006.8164127878199
 20
1586.142904006105
 30
0.0
 40
6.75
  0
LINE
  5
14206
  8
0
 10
2077.4054937878209
 20
1590.0319900061049
 30
0.0
 11
2075.9819897878201
 21
1584.7194020061049
 31
0.0
  0
LINE
  5
14207
  8
0
 10
2075.98197478782
 20
1584.719412006104
 30
0.0
 11
2079.8710617878201
 21
1580.830324006105
 31
0.0
  0
LINE
  5
14208
  8
0
 10
2085.1836457878221
 20
1582.253811006105
 30
0.0
 11
2079.871080787821
 21
1580.8303130061049
 31
0.0
  0
LINE
  5
14209
  8
0
 10
2086.6071687878189
 20
1587.566410006104
 30
0.0
 11
2085.1836647878208
 21
1582.253820006104
 31
0.0
  0
LINE
  5
1420A
  8
0
 10
2082.71806778782
 20
1591.4555050061051
 30
0.0
 11
2086.6071557878199
 21
1587.5664180061051
 31
0.0
  0
LINE
  5
1420B
  8
0
 10
2077.40549778782
 20
1590.032005006105
 30
0.0
 11
2082.7180597878191
 21
1591.4555010061049
 31
0.0
  0
CIRCLE
  5
1420C
  8
0
 10
2081.29459678782
 20
1586.142904006105
 30
0.0
 40
6.75
  0
LINE
  5
1420D
  8
0
 10
2040.166401787819
 20
1654.5319900061049
 30
0.0
 11
2038.742897787821
 21
1649.219402006104
 31
0.0
  0
LINE
  5
1420E
  8
0
 10
2038.7428827878191
 20
1649.2194120061049
 30
0.0
 11
2042.63196978782
 21
1645.330324006105
 31
0.0
  0
LINE
  5
1420F
  8
0
 10
2047.9445537878221
 20
1646.753811006105
 30
0.0
 11
2042.631988787821
 21
1645.3303130061049
 31
0.0
  0
LINE
  5
14210
  8
0
 10
2049.3680767878191
 20
1652.0664100061049
 30
0.0
 11
2047.944572787821
 21
1646.753820006104
 31
0.0
  0
LINE
  5
14211
  8
0
 10
2045.47897578782
 20
1655.9555050061051
 30
0.0
 11
2049.3680637878201
 21
1652.0664180061051
 31
0.0
  0
LINE
  5
14212
  8
0
 10
2040.1664057878199
 20
1654.532005006105
 30
0.0
 11
2045.4789677878191
 21
1655.955501006104
 31
0.0
  0
CIRCLE
  5
14213
  8
0
 10
2044.0555047878199
 20
1650.642904006105
 30
0.0
 40
6.75
  0
LINE
  5
14214
  8
0
 10
2040.166401787819
 20
1568.531990006104
 30
0.0
 11
2038.742897787821
 21
1563.2194020061049
 31
0.0
  0
LINE
  5
14215
  8
0
 10
2038.7428827878191
 20
1563.2194120061049
 30
0.0
 11
2042.63196978782
 21
1559.330324006105
 31
0.0
  0
LINE
  5
14216
  8
0
 10
2047.9445537878221
 20
1560.753811006105
 30
0.0
 11
2042.631988787821
 21
1559.330313006104
 31
0.0
  0
LINE
  5
14217
  8
0
 10
2049.3680767878191
 20
1566.066410006104
 30
0.0
 11
2047.944572787821
 21
1560.7538200061049
 31
0.0
  0
LINE
  5
14218
  8
0
 10
2045.47897578782
 20
1569.9555050061051
 30
0.0
 11
2049.3680637878201
 21
1566.0664180061051
 31
0.0
  0
LINE
  5
14219
  8
0
 10
2040.1664057878199
 20
1568.532005006105
 30
0.0
 11
2045.4789677878191
 21
1569.9555010061049
 31
0.0
  0
CIRCLE
  5
1421A
  8
0
 10
2044.0555047878199
 20
1564.642904006105
 30
0.0
 40
6.75
  0
LINE
  5
1421B
  8
0
 10
2077.4054937878209
 20
1633.0319900061049
 30
0.0
 11
2075.9819897878201
 21
1627.719402006104
 31
0.0
  0
LINE
  5
1421C
  8
0
 10
2075.98197478782
 20
1627.719412006104
 30
0.0
 11
2079.8710617878201
 21
1623.830324006105
 31
0.0
  0
LINE
  5
1421D
  8
0
 10
2085.1836457878221
 20
1625.253811006105
 30
0.0
 11
2079.871080787821
 21
1623.8303130061049
 31
0.0
  0
LINE
  5
1421E
  8
0
 10
2086.6071687878189
 20
1630.5664100061049
 30
0.0
 11
2085.1836647878208
 21
1625.253820006104
 31
0.0
  0
LINE
  5
1421F
  8
0
 10
2082.71806778782
 20
1634.4555050061051
 30
0.0
 11
2086.6071557878199
 21
1630.5664180061051
 31
0.0
  0
LINE
  5
14220
  8
0
 10
2077.40549778782
 20
1633.032005006105
 30
0.0
 11
2082.7180597878191
 21
1634.4555010061049
 31
0.0
  0
CIRCLE
  5
14221
  8
0
 10
2081.29459678782
 20
1629.142904006105
 30
0.0
 40
6.75
  0
CIRCLE
  5
14222
  8
0
 10
2006.8164127878199
 20
1629.142904006105
 30
0.0
 40
6.75
  0
LINE
  5
14223
  8
0
 10
2002.92731278782
 20
1633.032005006105
 30
0.0
 11
2008.239874787819
 21
1634.4555010061049
 31
0.0
  0
LINE
  5
14224
  8
0
 10
2010.705460787821
 20
1625.253811006105
 30
0.0
 11
2005.3928957878211
 21
1623.8303130061049
 31
0.0
  0
LINE
  5
14225
  8
0
 10
2008.2398827878201
 20
1634.4555050061051
 30
0.0
 11
2012.12897078782
 21
1630.5664180061051
 31
0.0
  0
LINE
  5
14226
  8
0
 10
2012.1289837878189
 20
1630.5664100061049
 30
0.0
 11
2010.7054797878211
 21
1625.253820006104
 31
0.0
  0
LINE
  5
14227
  8
0
 10
2002.9273087878209
 20
1633.0319900061049
 30
0.0
 11
2001.5038047878199
 21
1627.719402006104
 31
0.0
  0
LINE
  5
14228
  8
0
 10
2001.5037897878201
 20
1627.719412006104
 30
0.0
 11
2005.3928767878199
 21
1623.830324006105
 31
0.0
  0
ARC
  5
14229
  8
CENTER
 10
2040.158390787821
 20
1609.892904006105
 30
0.0
 40
38.5
 50
134.46756600002911
 51
164.19277500001701
  0
LINE
  5
1422A
  8
CENTER
 10
2073.426965787819
 20
1590.685283006105
 30
0.0
 11
2088.9704077878209
 21
1581.7112730061051
 31
0.0
  0
LINE
  5
1422B
  8
CENTER
 10
2015.1096507878201
 20
1590.931007006104
 30
0.0
 11
1999.558537787821
 21
1581.9525680061049
 31
0.0
  0
LINE
  5
1422C
  8
CENTER
 10
2014.80886378782
 20
1624.528460006105
 30
0.0
 11
1999.27977178782
 21
1633.494185006105
 31
0.0
  0
LINE
  5
1422D
  8
CENTER
 10
2073.3021457878199
 20
1624.528460006105
 30
0.0
 11
2089.28408178782
 21
1633.755635006105
 31
0.0
  0
LINE
  5
1422E
  8
CENTER
 10
1979.4999987878191
 20
1607.642904006105
 30
0.0
 11
2108.6110107878212
 21
1607.642904006105
 31
0.0
  0
LINE
  5
1422F
  8
CENTER
 10
2044.0555047878199
 20
1526.722121006105
 30
0.0
 11
2044.0555047878199
 21
1688.5636870061051
 31
0.0
  0
ARC
  5
1429C
  8
HIDE
 10
2044.0555047878199
 20
1607.642904006105
 30
0.0
 40
17.5
 50
270.0
 51
180.0
  0
LINE
  5
1429D
  8
0
 10
2050.007134917932
 20
1578.2391950768831
 30
0.0
 11
2073.4592137170448
 21
1601.691273876002
 31
0.0
  0
LINE
  5
1429E
  8
0
 10
2014.6517958585951
 20
1613.5945341362039
 30
0.0
 11
2038.103874657701
 21
1637.046612935324
 31
0.0
  0
LINE
  5
1429F
  8
0
 10
2038.1038746577301
 20
1578.2391950768799
 30
0.0
 11
2014.6517958585951
 21
1601.6912738760241
 31
0.0
  0
LINE
  5
142A0
  8
0
 10
2073.459213717038
 20
1613.594534136224
 30
0.0
 11
2050.007134917947
 21
1637.0466129353231
 31
0.0
  0
CIRCLE
  5
142A1
  8
0
 10
2044.0555047878199
 20
1607.642904006105
 30
0.0
 40
16.75
  0
ARC
  5
142A2
  8
0
 10
2044.0555047878199
 20
1607.642904006105
 30
0.0
 40
30.0
 50
348.5573097618821
 51
11.44269023811786
  0
ARC
  5
142A3
  8
0
 10
2044.0555047878199
 20
1607.642904006105
 30
0.0
 40
30.0
 50
78.55730976169491
 51
101.4426902383051
  0
ARC
  5
142A4
  8
0
 10
2044.0555047878199
 20
1607.642904006105
 30
0.0
 40
30.0
 50
168.5573097618821
 51
191.4426902380101
  0
ARC
  5
142A5
  8
0
 10
2044.0555047878199
 20
1607.642904006105
 30
0.0
 40
30.0
 50
258.5573097621201
 51
281.44269023787979
  0
CIRCLE
  5
142A6
  8
HIDE
 10
2044.0555047878199
 20
1607.6429040061071
 30
0.0
 40
23.0
  0
LINE
  5
142A7
  8
HIDE
 10
2040.0555047878131
 20
1637.3750415007401
 30
0.0
 11
2040.0555047878061
 21
1623.9082813457139
 31
0.0
  0
LINE
  5
142A8
  8
HIDE
 10
2048.0555047878129
 20
1637.375041500743
 30
0.0
 11
2048.0555047878129
 21
1623.908281345721
 31
0.0
  0
LINE
  5
142A9
  8
HIDE
 10
2040.6555047878189
 20
1637.4496146599161
 30
0.0
 11
2040.6555047878189
 21
1624.04419968663
 31
0.0
  0
LINE
  5
142AA
  8
HIDE
 10
2047.4555047878071
 20
1637.449614659917
 30
0.0
 11
2047.4555047878221
 21
1624.04419968663
 31
0.0
  0
LINE
  5
142AB
  8
HIDE
 10
2040.6555047878189
 20
1627.642904006105
 30
0.0
 11
2047.4555047878221
 21
1627.642904006105
 31
0.0
  0
LINE
  5
142AC
  8
HIDE
 10
2040.6555047878189
 20
1627.642904006105
 30
0.0
 11
2040.0555047878131
 21
1628.6821344906421
 31
0.0
  0
LINE
  5
142AD
  8
HIDE
 10
2047.4555047878221
 20
1627.642904006105
 30
0.0
 11
2048.0555047878129
 21
1628.6821344906421
 31
0.0
  0
LINE
  5
142AE
  8
HIDE
 10
2040.0555047878131
 20
1628.6821344906421
 30
0.0
 11
2048.0555047878129
 21
1628.6821344906421
 31
0.0
  0
LINE
  5
142AF
  8
HIDE
 10
2040.0555047878131
 20
1636.6821344906421
 30
0.0
 11
2048.0555047878129
 21
1636.6821344906421
 31
0.0
  0
LINE
  5
142B0
  8
HIDE
 10
2040.0555047877981
 20
1577.9107665114791
 30
0.0
 11
2040.0555047877981
 21
1591.377526666505
 31
0.0
  0
LINE
  5
142B1
  8
HIDE
 10
2048.055504787797
 20
1577.910766511472
 30
0.0
 11
2048.0555047878051
 21
1591.3775266664941
 31
0.0
  0
LINE
  5
142B2
  8
HIDE
 10
2040.6555047878039
 20
1577.8361933523031
 30
0.0
 11
2040.6555047878121
 21
1591.2416083255889
 31
0.0
  0
LINE
  5
142B3
  8
HIDE
 10
2047.455504787793
 20
1577.8361933522981
 30
0.0
 11
2047.4555047878141
 21
1591.241608325585
 31
0.0
  0
LINE
  5
142B4
  8
HIDE
 10
2040.6555047878039
 20
1587.6429040061139
 30
0.0
 11
2047.4555047878071
 21
1587.64290400611
 31
0.0
  0
LINE
  5
142B5
  8
HIDE
 10
2040.6555047878039
 20
1587.6429040061139
 30
0.0
 11
2040.0555047877981
 21
1586.6036735215771
 31
0.0
  0
LINE
  5
142B6
  8
HIDE
 10
2047.4555047878071
 20
1587.64290400611
 30
0.0
 11
2048.055504787797
 21
1586.603673521573
 31
0.0
  0
LINE
  5
142B7
  8
HIDE
 10
2040.0555047877981
 20
1586.6036735215771
 30
0.0
 11
2048.055504787797
 21
1586.603673521573
 31
0.0
  0
LINE
  5
142B8
  8
HIDE
 10
2040.0555047877981
 20
1578.6036735215771
 30
0.0
 11
2048.055504787797
 21
1578.603673521573
 31
0.0
  0
LINE
  5
142B9
  8
CENTER
 10
2173.1706177878191
 20
1607.642904006105
 30
0.0
 11
2200.1706177878191
 21
1607.642904006105
 31
0.0
  0
LINE
  5
142BB
  8
0
 10
2176.1706177878191
 20
1577.642904006105
 30
0.0
 11
2176.1706177878191
 21
1637.642904006105
 31
0.0
  0
LINE
  5
142BC
  8
HIDE
 10
2197.1706177878191
 20
1584.6429040061159
 30
0.0
 11
2197.1706177878191
 21
1630.6429040061071
 31
0.0
  0
LINE
  5
142BD
  8
HIDE
 10
2196.6706177878191
 20
1577.642904006105
 30
0.0
 11
2196.6706177878191
 21
1637.642904006105
 31
0.0
  0
LINE
  5
142BE
  8
0
 10
2176.1706177878191
 20
1637.642904006105
 30
0.0
 11
2191.1705877878198
 21
1637.642904006105
 31
0.0
  0
LINE
  5
142BF
  8
0
 10
2176.1706177878191
 20
1577.642904006105
 30
0.0
 11
2191.1705877878198
 21
1577.642904006105
 31
0.0
  0
LINE
  5
142C0
  8
HIDE
 10
2196.6706177878118
 20
1631.142904006118
 30
0.0
 11
2197.1706177878118
 21
1630.642904006105
 31
0.0
  0
LINE
  5
142C1
  8
HIDE
 10
2196.6706177878118
 20
1584.1429040060921
 30
0.0
 11
2197.1706177878118
 21
1584.642904006105
 31
0.0
  0
LINE
  5
142C2
  8
HIDE
 10
2197.1706177878118
 20
1625.142904006105
 30
0.0
 11
2176.1706177878191
 21
1625.142904006105
 31
0.0
  0
LINE
  5
142C3
  8
HIDE
 10
2197.1706177878118
 20
1624.392904006103
 30
0.0
 11
2176.1706177878191
 21
1624.392904006105
 31
0.0
  0
LINE
  5
142C4
  8
HIDE
 10
2197.1706177878118
 20
1590.142904006105
 30
0.0
 11
2176.1706177878191
 21
1590.142904006105
 31
0.0
  0
LINE
  5
142C5
  8
HIDE
 10
2197.1706177878118
 20
1590.8929040061071
 30
0.0
 11
2176.1706177878191
 21
1590.892904006105
 31
0.0
  0
LINE
  5
142C6
  8
CENTER
 10
2183.1706177878191
 20
1640.0952503860899
 30
0.0
 11
2183.1706177878191
 21
1622.4938508788041
 31
0.0
  0
LINE
  5
142C7
  8
HIDE
 10
2187.1706177878268
 20
1637.642904006105
 30
0.0
 11
2187.1706177878341
 21
1624.392904006105
 31
0.0
  0
LINE
  5
142C8
  8
HIDE
 10
2179.1706177878268
 20
1637.642904006105
 30
0.0
 11
2179.1706177878268
 21
1624.392904006105
 31
0.0
  0
LINE
  5
142C9
  8
HIDE
 10
2186.570617787821
 20
1637.642904006105
 30
0.0
 11
2186.570617787821
 21
1624.392904006103
 31
0.0
  0
LINE
  5
142CA
  8
HIDE
 10
2179.7706177878322
 20
1637.642904006105
 30
0.0
 11
2179.7706177878181
 21
1624.392904006105
 31
0.0
  0
LINE
  5
142CB
  8
HIDE
 10
2186.570617787821
 20
1627.642904006105
 30
0.0
 11
2179.7706177878181
 21
1627.642904006105
 31
0.0
  0
LINE
  5
142CC
  8
HIDE
 10
2186.570617787821
 20
1627.642904006105
 30
0.0
 11
2187.1706177878268
 21
1628.6821344906421
 31
0.0
  0
LINE
  5
142CD
  8
HIDE
 10
2179.7706177878181
 20
1627.642904006105
 30
0.0
 11
2179.1706177878268
 21
1628.6821344906421
 31
0.0
  0
LINE
  5
142CE
  8
HIDE
 10
2187.1706177878268
 20
1628.6821344906421
 30
0.0
 11
2179.1706177878268
 21
1628.6821344906421
 31
0.0
  0
LINE
  5
142CF
  8
HIDE
 10
2187.1706177878268
 20
1636.6821344906421
 30
0.0
 11
2179.1706177878268
 21
1636.6821344906421
 31
0.0
  0
LINE
  5
142D0
  8
CENTER
 10
2182.6706177878191
 20
1575.1905576261199
 30
0.0
 11
2182.6706177878191
 21
1592.791957133406
 31
0.0
  0
LINE
  5
142D1
  8
HIDE
 10
2187.1706177878268
 20
1577.642904006105
 30
0.0
 11
2187.1706177878341
 21
1590.892904006105
 31
0.0
  0
LINE
  5
142D2
  8
HIDE
 10
2179.1706177878268
 20
1577.642904006105
 30
0.0
 11
2179.1706177878268
 21
1590.892904006105
 31
0.0
  0
LINE
  5
142D3
  8
HIDE
 10
2186.570617787821
 20
1577.642904006105
 30
0.0
 11
2186.570617787821
 21
1590.8929040061071
 31
0.0
  0
LINE
  5
142D4
  8
HIDE
 10
2179.7706177878322
 20
1577.642904006105
 30
0.0
 11
2179.7706177878181
 21
1590.892904006105
 31
0.0
  0
LINE
  5
142D5
  8
HIDE
 10
2186.570617787821
 20
1587.642904006105
 30
0.0
 11
2179.7706177878181
 21
1587.642904006105
 31
0.0
  0
LINE
  5
142D6
  8
HIDE
 10
2186.570617787821
 20
1587.642904006105
 30
0.0
 11
2187.1706177878268
 21
1586.603673521568
 31
0.0
  0
LINE
  5
142D7
  8
HIDE
 10
2179.7706177878181
 20
1587.642904006105
 30
0.0
 11
2179.1706177878268
 21
1586.603673521568
 31
0.0
  0
LINE
  5
142D8
  8
HIDE
 10
2187.1706177878268
 20
1586.603673521568
 30
0.0
 11
2179.1706177878268
 21
1586.603673521568
 31
0.0
  0
LINE
  5
142D9
  8
HIDE
 10
2187.1706177878268
 20
1578.603673521568
 30
0.0
 11
2179.1706177878268
 21
1578.603673521568
 31
0.0
  0
LINE
  5
142DA
  8
HIDE
 10
2197.1706177878159
 20
1627.6429040061109
 30
0.0
 11
2197.1706177878218
 21
1587.6429040061109
 31
0.0
  0
LINE
  5
142DB
  8
HIDE
 10
2196.6706177878191
 20
1577.642904006105
 30
0.0
 11
2191.1705877878198
 21
1577.642904006105
 31
0.0
  0
LINE
  5
142DC
  8
HIDE
 10
2191.1705877878198
 20
1637.642904006105
 30
0.0
 11
2196.6706177878191
 21
1637.642904006105
 31
0.0
  0
LINE
  5
142DD
  8
HIDE
 10
2197.1706177878191
 20
1626.8929040061109
 30
0.0
 11
2197.1706177878191
 21
1588.3929040061109
 31
0.0
  0
LINE
  5
142DE
  8
HIDE
 10
2197.1706177878191
 20
1626.892904006105
 30
0.0
 11
2197.1706177878191
 21
1588.392904006105
 31
0.0
  0
ENDSEC
  0
EOF
